  0
SECTION
  2
HEADER
  9
$ACADVER
  1
AC1014
  9
$ACADMAINTVER
 70
     9
  9
$DWGCODEPAGE
  3
ANSI_1250
  9
$INSBASE
 10
0.0
 20
0.0
 30
0.0
  9
$EXTMIN
 10
2.701201278112129
 20
5.611607893801829
 30
0.0
  9
$EXTMAX
 10
14.70120127811212
 20
17.46661736330869
 30
0.0
  9
$LIMMIN
 10
0.0
 20
0.0
  9
$LIMMAX
 10
0.0
 20
0.0
  9
$ORTHOMODE
 70
     0
  9
$REGENMODE
 70
     1
  9
$FILLMODE
 70
     1
  9
$QTEXTMODE
 70
     0
  9
$MIRRTEXT
 70
     1
  9
$DRAGMODE
 70
     2
  9
$LTSCALE
 40
1.0
  9
$OSMODE
 70
  3007
  9
$ATTMODE
 70
     1
  9
$TEXTSIZE
 40
2.5
  9
$TRACEWID
 40
1.0
  9
$TEXTSTYLE
  7
STANDARD
  9
$CLAYER
  8
0
  9
$CELTYPE
  6
BYLAYER
  9
$CECOLOR
 62
   256
  9
$CELTSCALE
 40
1.0
  9
$DELOBJ
 70
     1
  9
$DISPSILH
 70
     0
  9
$DIMSCALE
 40
1.0
  9
$DIMASZ
 40
0.3
  9
$DIMEXO
 40
0.1
  9
$DIMDLI
 40
3.75
  9
$DIMRND
 40
0.0
  9
$DIMDLE
 40
0.0
  9
$DIMEXE
 40
0.1
  9
$DIMTP
 40
0.0
  9
$DIMTM
 40
0.0
  9
$DIMTXT
 40
0.2822222222222222
  9
$DIMCEN
 40
2.5
  9
$DIMTSZ
 40
0.0
  9
$DIMTOL
 70
     0
  9
$DIMLIM
 70
     0
  9
$DIMTIH
 70
     1
  9
$DIMTOH
 70
     1
  9
$DIMSE1
 70
     0
  9
$DIMSE2
 70
     0
  9
$DIMTAD
 70
     1
  9
$DIMZIN
 70
     0
  9
$DIMBLK
  1

  9
$DIMASO
 70
     1
  9
$DIMSHO
 70
     1
  9
$DIMPOST
  1

  9
$DIMAPOST
  1

  9
$DIMALT
 70
     0
  9
$DIMALTD
 70
     3
  9
$DIMALTF
 40
0.3937007874015748
  9
$DIMLFAC
 40
15.0
  9
$DIMTOFL
 70
     1
  9
$DIMTVP
 40
0.0
  9
$DIMTIX
 70
     0
  9
$DIMSOXD
 70
     0
  9
$DIMSAH
 70
     0
  9
$DIMBLK1
  1

  9
$DIMBLK2
  1

  9
$DIMSTYLE
  2
ISO-25
  9
$DIMCLRD
 70
     0
  9
$DIMCLRE
 70
     0
  9
$DIMCLRT
 70
     0
  9
$DIMTFAC
 40
1.0
  9
$DIMGAP
 40
0.1524
  9
$DIMJUST
 70
     0
  9
$DIMSD1
 70
     0
  9
$DIMSD2
 70
     0
  9
$DIMTOLJ
 70
     0
  9
$DIMTZIN
 70
     0
  9
$DIMALTZ
 70
     0
  9
$DIMALTTZ
 70
     0
  9
$DIMFIT
 70
     3
  9
$DIMUPT
 70
     0
  9
$DIMUNIT
 70
     2
  9
$DIMDEC
 70
     2
  9
$DIMTDEC
 70
     2
  9
$DIMALTU
 70
     2
  9
$DIMALTTD
 70
     3
  9
$DIMTXSTY
  7
STANDARD
  9
$DIMAUNIT
 70
     0
  9
$LUNITS
 70
     2
  9
$LUPREC
 70
     1
  9
$SKETCHINC
 40
1.0
  9
$FILLETRAD
 40
10.0
  9
$AUNITS
 70
     0
  9
$AUPREC
 70
     0
  9
$MENU
  1
.
  9
$ELEVATION
 40
0.0
  9
$PELEVATION
 40
0.0
  9
$THICKNESS
 40
0.0
  9
$LIMCHECK
 70
     0
  9
$BLIPMODE
 70
     0
  9
$CHAMFERA
 40
10.0
  9
$CHAMFERB
 40
10.0
  9
$CHAMFERC
 40
20.0
  9
$CHAMFERD
 40
0.0
  9
$SKPOLY
 70
     0
  9
$TDCREATE
 40
2453964.578275382
  9
$TDUPDATE
 40
2453966.375261134
  9
$TDINDWG
 40
0.0161283102
  9
$TDUSRTIMER
 40
0.0161283102
  9
$USRTIMER
 70
     1
  9
$ANGBASE
 50
0.0
  9
$ANGDIR
 70
     0
  9
$PDMODE
 70
     0
  9
$PDSIZE
 40
-1.0
  9
$PLINEWID
 40
0.0
  9
$COORDS
 70
     2
  9
$SPLFRAME
 70
     0
  9
$SPLINETYPE
 70
     6
  9
$SPLINESEGS
 70
     8
  9
$ATTDIA
 70
     0
  9
$ATTREQ
 70
     1
  9
$HANDLING
 70
 22529
  9
$HANDSEED
  5
164
  9
$SURFTAB1
 70
     6
  9
$SURFTAB2
 70
     6
  9
$SURFTYPE
 70
     6
  9
$SURFU
 70
     6
  9
$SURFV
 70
     6
  9
$UCSNAME
  2

  9
$UCSORG
 10
0.0
 20
0.0
 30
0.0
  9
$UCSXDIR
 10
1.0
 20
0.0
 30
0.0
  9
$UCSYDIR
 10
0.0
 20
1.0
 30
0.0
  9
$PUCSNAME
  2

  9
$PUCSORG
 10
0.0
 20
0.0
 30
0.0
  9
$PUCSXDIR
 10
1.0
 20
0.0
 30
0.0
  9
$PUCSYDIR
 10
0.0
 20
1.0
 30
0.0
  9
$USERI1
 70
     0
  9
$USERI2
 70
     0
  9
$USERI3
 70
     0
  9
$USERI4
 70
     0
  9
$USERI5
 70
     0
  9
$USERR1
 40
0.0
  9
$USERR2
 40
0.0
  9
$USERR3
 40
0.0
  9
$USERR4
 40
0.0
  9
$USERR5
 40
0.0
  9
$WORLDVIEW
 70
     1
  9
$SHADEDGE
 70
     3
  9
$SHADEDIF
 70
    70
  9
$TILEMODE
 70
     1
  9
$MAXACTVP
 70
    48
  9
$PINSBASE
 10
0.0
 20
0.0
 30
0.0
  9
$PLIMCHECK
 70
     0
  9
$PEXTMIN
 10
29.06818420886992
 20
20.35598328113556
 30
0.0
  9
$PEXTMAX
 10
261.6136578798294
 20
183.20384953022
 30
0.0
  9
$PLIMMIN
 10
-3.17498779296875
 20
-3.174999952316284
  9
$PLIMMAX
 10
293.8568420410156
 20
206.7348358631134
  9
$UNITMODE
 70
     0
  9
$VISRETAIN
 70
     1
  9
$PLINEGEN
 70
     0
  9
$PSLTSCALE
 70
     1
  9
$TREEDEPTH
 70
  3020
  9
$PICKSTYLE
 70
     1
  9
$CMLSTYLE
  2
STANDARD
  9
$CMLJUST
 70
     0
  9
$CMLSCALE
 40
20.0
  9
$PROXYGRAPHICS
 70
     1
  9
$MEASUREMENT
 70
     1
  0
ENDSEC
  0
SECTION
  2
CLASSES
  0
CLASS
  1
ACDBDICTIONARYWDFLT
  2
AcDbDictionaryWithDefault
  3
AutoCAD 2000
 90
        0
280
     0
281
     0
  0
CLASS
  1
ACDBPLACEHOLDER
  2
AcDbPlaceHolder
  3
AutoCAD 2000
 90
        0
280
     0
281
     0
  0
CLASS
  1
LAYOUT
  2
AcDbLayout
  3
AutoCAD 2000
 90
        0
280
     0
281
     0
  0
CLASS
  1
DICTIONARYVAR
  2
AcDbDictionaryVar
  3
AutoCAD 2000
 90
        0
280
     0
281
     0
  0
CLASS
  1
LONG_TRANSACTION
  2
AcDbLongTransaction
  3
AutoCAD 2000
 90
        0
280
     0
281
     0
  0
CLASS
  1
LWPOLYLINE
  2
AcDbPolyline
  3
AutoCAD 2000
 90
        0
280
     0
281
     1
  0
CLASS
  1
HATCH
  2
AcDbHatch
  3
AutoCAD 2000
 90
        0
280
     0
281
     1
  0
CLASS
  1
XRECORD
  2
AcDbXrecord
  3
AutoCAD 2000
 90
        0
280
     0
281
     0
  0
CLASS
  1
LONG_TRANSACTION
  2
AcDbLongTransaction
  3
AutoCAD 2000
 90
        0
280
     0
281
     0
  0
CLASS
  1
LWPOLYLINE
  2
AcDbPolyline
  3
AutoCAD 2000
 90
        0
280
     0
281
     1
  0
CLASS
  1
HATCH
  2
AcDbHatch
  3
AutoCAD 2000
 90
        0
280
     0
281
     1
  0
CLASS
  1
XRECORD
  2
AcDbXrecord
  3
AutoCAD 2000
 90
        0
280
     0
281
     0
  0
ENDSEC
  0
SECTION
  2
TABLES
  0
TABLE
  2
VPORT
  5
8
330
0
100
AcDbSymbolTable
 70
     2
  0
VPORT
  5
13F
330
8
100
AcDbSymbolTableRecord
100
AcDbViewportTableRecord
  2
*ACTIVE
 70
     0
 10
0.0
 20
0.0
 11
1.0
 21
1.0
 12
8.701398530010374
 22
11.53900914434228
 13
0.0
 23
0.0
 14
10.0
 24
10.0
 15
10.0
 25
10.0
 16
0.0
 26
0.0
 36
1.0
 17
0.0
 27
0.0
 37
0.0
 40
11.97372481995924
 41
1.674961119751166
 42
50.0
 43
0.0
 44
0.0
 50
0.0
 51
0.0
 71
     0
 72
  2000
 73
     1
 74
     3
 75
     0
 76
     0
 77
     0
 78
     0
  0
ENDTAB
  0
TABLE
  2
LTYPE
  5
5
330
0
100
AcDbSymbolTable
 70
     1
  0
LTYPE
  5
14
330
5
100
AcDbSymbolTableRecord
100
AcDbLinetypeTableRecord
  2
BYBLOCK
 70
     0
  3

 72
    65
 73
     0
 40
0.0
  0
LTYPE
  5
15
330
5
100
AcDbSymbolTableRecord
100
AcDbLinetypeTableRecord
  2
BYLAYER
 70
     0
  3

 72
    65
 73
     0
 40
0.0
  0
LTYPE
  5
16
330
5
100
AcDbSymbolTableRecord
100
AcDbLinetypeTableRecord
  2
CONTINUOUS
 70
     0
  3
Solid line
 72
    65
 73
     0
 40
0.0
  0
ENDTAB
  0
TABLE
  2
LAYER
  5
2
330
0
100
AcDbSymbolTable
 70
     2
  0
LAYER
  5
10
330
2
100
AcDbSymbolTableRecord
100
AcDbLayerTableRecord
  2
0
 70
     0
 62
     7
  6
CONTINUOUS
  0
LAYER
  5
30
330
2
100
AcDbSymbolTableRecord
100
AcDbLayerTableRecord
  2
REMARKS
 70
     0
 62
     5
  6
CONTINUOUS
  0
ENDTAB
  0
TABLE
  2
STYLE
  5
3
330
0
100
AcDbSymbolTable
 70
     1
  0
STYLE
  5
11
330
3
100
AcDbSymbolTableRecord
100
AcDbTextStyleTableRecord
  2
STANDARD
 70
     0
 40
0.0
 41
1.0
 50
0.0
 71
     0
 42
2.5
  3
ARIAL.TTF
  4

1001
ACAD
1000
Arial
1071
       34
  0
ENDTAB
  0
TABLE
  2
VIEW
  5
6
330
0
100
AcDbSymbolTable
 70
     0
  0
ENDTAB
  0
TABLE
  2
UCS
  5
7
330
0
100
AcDbSymbolTable
 70
     0
  0
ENDTAB
  0
TABLE
  2
APPID
  5
9
330
0
100
AcDbSymbolTable
 70
     1
  0
APPID
  5
12
330
9
100
AcDbSymbolTableRecord
100
AcDbRegAppTableRecord
  2
ACAD
 70
     0
  0
ENDTAB
  0
TABLE
  2
DIMSTYLE
  5
A
330
0
100
AcDbSymbolTable
 70
     1
  0
DIMSTYLE
105
27
330
A
100
AcDbSymbolTableRecord
100
AcDbDimStyleTableRecord
  2
ISO-25
 70
     0
  3

  4

  5

  6

  7

 40
1.0
 41
2.5
 42
0.625
 43
3.75
 44
1.25
 45
0.0
 46
0.0
 47
0.0
 48
0.0
140
2.5
141
2.5
142
0.0
143
0.03937007874016
144
1.0
145
0.0
146
1.0
147
0.625
 71
     0
 72
     0
 73
     0
 74
     0
 75
     0
 76
     0
 77
     1
 78
     8
170
     0
171
     3
172
     1
173
     0
174
     0
175
     0
176
     0
177
     0
178
     0
270
     2
271
     2
272
     2
273
     2
274
     3
340
11
275
     0
280
     0
281
     0
282
     0
283
     0
284
     8
285
     0
286
     0
287
     3
288
     0
  0
ENDTAB
  0
TABLE
  2
BLOCK_RECORD
  5
1
330
0
100
AcDbSymbolTable
 70
     1
  0
BLOCK_RECORD
  5
1F
102
{ACAD_XDICTIONARY
360
F8
102
}
330
1
100
AcDbSymbolTableRecord
100
AcDbBlockTableRecord
  2
*MODEL_SPACE
  0
BLOCK_RECORD
  5
23
102
{ACAD_XDICTIONARY
360
FA
102
}
330
1
100
AcDbSymbolTableRecord
100
AcDbBlockTableRecord
  2
*PAPER_SPACE
  0
ENDTAB
  0
ENDSEC
  0
SECTION
  2
BLOCKS
  0
BLOCK
  5
20
330
1F
100
AcDbEntity
  8
0
100
AcDbBlockBegin
  2
*MODEL_SPACE
 70
     0
 10
0.0
 20
0.0
 30
0.0
  3
*MODEL_SPACE
  1

  0
ENDBLK
  5
21
330
1F
100
AcDbEntity
  8
0
100
AcDbBlockEnd
  0
BLOCK
  5
24
330
23
100
AcDbEntity
 67
     1
  8
0
100
AcDbBlockBegin
  2
*PAPER_SPACE
 70
     0
 10
0.0
 20
0.0
 30
0.0
  3
*PAPER_SPACE
  1

  0
ENDBLK
  5
25
330
23
100
AcDbEntity
 67
     1
  8
0
100
AcDbBlockEnd
  0
ENDSEC
  0
SECTION
  2
ENTITIES
  0
LINE
  5
AA
330
1F
100
AcDbEntity
  8
0
  6
CONTINUOUS
 62
     7
100
AcDbLine
 10
3.232520070796292
 20
8.742420705255682
 30
0.0
 11
4.582769180680217
 21
5.807096553333999
 31
0.0
  0
LINE
  5
AB
330
1F
100
AcDbEntity
  8
0
  6
CONTINUOUS
 62
     7
100
AcDbLine
 10
12.81963426713505
 20
5.807098491575342
 30
0.0
 11
14.16988248542796
 21
8.742420705255682
 31
0.0
  0
LINE
  5
AC
330
1F
100
AcDbEntity
  8
0
  6
CONTINUOUS
 62
     7
100
AcDbLine
 10
4.64462955710251
 20
5.803548140075795
 30
0.0
 11
8.327241414500917
 21
5.729895902927826
 31
0.0
  0
LINE
  5
AD
330
1F
100
AcDbEntity
  8
0
  6
CONTINUOUS
 62
     7
100
AcDbLine
 10
9.07516114172334
 20
5.729895902927826
 30
0.0
 11
12.75759358310343
 21
5.803544551755429
 31
0.0
  0
ARC
  5
AE
330
1F
100
AcDbEntity
  8
0
  6
CONTINUOUS
 62
     7
100
AcDbCircle
 10
8.701201278112129
 20
6.181926652087287
 30
0.0
 40
0.5866666666666676
100
AcDbArc
 50
287.1847959010884
 51
309.6005648414014
  0
ARC
  5
AF
330
1F
100
AcDbEntity
  8
0
  6
CONTINUOUS
 62
     7
100
AcDbCircle
 10
8.701201278112129
 20
6.181926652087287
 30
0.0
 40
0.5866666666666676
100
AcDbArc
 50
230.3994351586002
 51
252.8152040989132
  0
LINE
  5
B0
330
1F
100
AcDbEntity
  8
0
  6
CONTINUOUS
 62
     7
100
AcDbLine
 10
2.701201278112129
 20
9.075754038589018
 30
0.0
 11
2.701201278112129
 21
8.742420705255682
 31
0.0
  0
LINE
  5
B1
330
1F
100
AcDbEntity
  8
0
  6
CONTINUOUS
 62
     7
100
AcDbLine
 10
14.70120127811212
 20
9.075754038589018
 30
0.0
 11
14.70120127811212
 21
8.742420705255682
 31
0.0
  0
LINE
  5
B2
330
1F
100
AcDbEntity
  8
0
  6
CONTINUOUS
 62
     7
100
AcDbLine
 10
2.701201278112129
 20
8.742420705255682
 30
0.0
 11
14.70120127811212
 21
8.742420705255682
 31
0.0
  0
LINE
  5
B3
330
1F
100
AcDbEntity
  8
0
  6
CONTINUOUS
 62
     7
100
AcDbLine
 10
2.701201278112129
 20
9.075754038589018
 30
0.0
 11
14.70120127811212
 21
9.075754038589018
 31
0.0
  0
ARC
  5
B4
330
1F
100
AcDbEntity
  8
0
  6
CONTINUOUS
 62
     7
100
AcDbCircle
 10
8.699935182514836
 20
8.70686173726037
 30
0.0
 40
0.1722112125446867
100
AcDbArc
 50
167.5932928032219
 51
270.4212419541837
  0
ARC
  5
B5
330
1F
100
AcDbEntity
  8
0
  6
CONTINUOUS
 62
     7
100
AcDbCircle
 10
8.702392115865233
 20
8.706923900604733
 30
0.0
 40
0.172272837551537
100
AcDbArc
 50
269.6039391833975
 51
12.38335416044767
  0
LWPOLYLINE
  5
B6
330
1F
100
AcDbEntity
  8
0
  6
CONTINUOUS
 62
     7
100
AcDbPolyline
 90
        4
 70
   128
 43
0.0
 10
13.89850755854048
 20
8.742420705255682
 10
13.62068176848487
 20
8.091740398224695
 10
13.26074346515016
 20
7.248688350577518
 10
12.6433655557318
 20
5.80247683048942
  0
LWPOLYLINE
  5
B7
330
1F
100
AcDbEntity
  8
0
  6
CONTINUOUS
 62
     7
100
AcDbPolyline
 90
       17
 70
   128
 43
0.0
 10
4.759037000492456
 20
5.80247683048942
 10
5.745063186853502
 20
5.783120764939988
 10
6.731097248366833
 20
5.764164903429588
 10
7.224122586787371
 20
5.754989962366688
 10
7.71715889114083
 20
5.746424110261478
 10
7.963696260667924
 20
5.742536436610641
 10
8.210244554646855
 20
5.739248201094547
 10
8.456801321413133
 20
5.736975995631015
 10
8.703364109302262
 20
5.736136412137867
 10
8.949625846648912
 20
5.737001684071564
 10
9.195881451232533
 20
5.739289813275568
 10
9.442128575931176
 20
5.742585987154862
 10
9.6883648736229
 20
5.746475393114436
 10
10.18087046478411
 20
5.755037212654269
 10
10.67336516151537
 20
5.764203823559543
 10
11.6583692820217
 20
5.78314095647486
 10
12.6433655557318
 20
5.80247683048942
  0
LWPOLYLINE
  5
B8
330
1F
100
AcDbEntity
  8
0
  6
CONTINUOUS
 62
     7
100
AcDbPolyline
 90
        4
 70
   128
 43
0.0
 10
4.759037000492456
 20
5.80247683048942
 10
4.399148252244251
 20
6.645549627246475
 10
4.039228501780582
 20
7.488609443525051
 10
3.503892925729477
 20
8.742420705255682
  0
LWPOLYLINE
  5
B9
330
1F
100
AcDbEntity
  8
0
  6
CONTINUOUS
 62
     7
100
AcDbPolyline
 90
       14
 70
   128
 43
0.0
 10
4.582958170921474
 20
5.80718348884491
 10
4.582906007271495
 20
5.806996002957228
 10
4.584970406173267
 20
5.806372867986901
 10
4.589286718434635
 20
5.805791606777297
 10
4.595852107486685
 20
5.805253320888907
 10
4.604663736760498
 20
5.804759111882223
 10
4.615881526855742
 20
5.804304309430986
 10
4.6294013107444
 20
5.803896498304288
 10
4.645216666180053
 20
5.80353651884872
 10
4.663321170916285
 20
5.803225211410869
 10
4.683854843367743
 20
5.802961283744298
 10
4.706721969845461
 20
5.802746997264927
 10
4.731817654252632
 20
5.802584722628165
 10
4.759037000492454
 20
5.80247683048942
  0
LWPOLYLINE
  5
BA
330
1F
100
AcDbEntity
  8
0
  6
CONTINUOUS
 62
     7
100
AcDbPolyline
 90
       15
 70
   128
 43
0.0
 10
12.6433655557318
 20
5.80247683048942
 10
12.66780135663211
 20
5.802570810218901
 10
12.69055604299218
 20
5.802708559869411
 10
12.71153781460136
 20
5.802888061616019
 10
12.73065487124894
 20
5.803107297633792
 10
12.74794546584935
 20
5.803366628666237
 10
12.76338070420266
 20
5.803665738260819
 10
12.77695549898114
 20
5.804004054495184
 10
12.78866476285704
 20
5.804381005446978
 10
12.79847610477504
 20
5.804794596980782
 10
12.80643141117089
 20
5.805245368829422
 10
12.81252790622806
 20
5.805732539224477
 10
12.81676281413003
 20
5.806255326397522
 10
12.81913958735537
 20
5.806815085221526
 10
12.81944962225479
 20
5.807183428220296
  0
ARC
  5
BB
330
1F
100
AcDbEntity
  8
0
  6
CONTINUOUS
 62
     7
100
AcDbCircle
 10
8.702163062370473
 20
8.710010835236216
 30
0.0
 40
0.1725853793418196
100
AcDbArc
 50
269.6807002757128
 51
357.1100960196515
  0
ARC
  5
BC
330
1F
100
AcDbEntity
  8
0
  6
CONTINUOUS
 62
     7
100
AcDbCircle
 10
8.700239493849835
 20
8.71001083522867
 30
0.0
 40
0.1725853793342958
100
AcDbArc
 50
182.8899038763857
 51
270.3192997256142
  0
LINE
  5
BD
330
1F
100
AcDbEntity
  8
0
  6
CONTINUOUS
 62
     7
100
AcDbLine
 10
9.07516114172334
 20
5.729895902927826
 30
0.0
 11
8.327241414500917
 21
5.729895902927826
 31
0.0
  0
LINE
  5
BE
330
1F
100
AcDbEntity
  8
0
  6
CONTINUOUS
 62
     7
100
AcDbLine
 10
8.701201278112129
 20
5.621450663901056
 30
0.0
 11
8.874534611445463
 21
5.621450663901056
 31
0.0
  0
LINE
  5
BF
330
1F
100
AcDbEntity
  8
0
  6
CONTINUOUS
 62
     7
100
AcDbLine
 10
8.527867944778796
 20
5.621450663901056
 30
0.0
 11
8.701201278112129
 21
5.621450663901056
 31
0.0
  0
ARC
  5
C0
330
1F
100
AcDbEntity
  8
REMARKS
 62
     8
100
AcDbCircle
 10
4.423800353070994
 20
14.95054011051293
 30
0.0
 40
8.382963026895602
100
AcDbArc
 50
348.3339377351572
 51
11.44041699177702
  0
ARC
  5
C1
330
1F
100
AcDbEntity
  8
REMARKS
 62
     8
100
AcDbCircle
 10
6.602133711366627
 20
14.93328402997535
 30
0.0
 40
7.666959289713463
100
AcDbArc
 50
343.9773876075614
 51
16.02261239243941
  0
ARC
  5
C2
330
1F
100
AcDbEntity
  8
REMARKS
 62
     8
100
AcDbCircle
 10
12.97860183050547
 20
14.95054010977913
 30
0.0
 40
8.382962661797311
100
AcDbArc
 50
168.5595824981191
 51
191.6660627749482
  0
ARC
  5
C3
330
1F
100
AcDbEntity
  8
REMARKS
 62
     8
100
AcDbCircle
 10
10.80026936266411
 20
14.93328402997536
 30
0.0
 40
7.66695978740464
100
AcDbArc
 50
163.977388675637
 51
196.0226113243638
  0
LINE
  5
C4
330
1F
100
AcDbEntity
  8
0
  6
CONTINUOUS
 62
     7
100
AcDbLine
 10
2.740322884034359
 20
12.80002159379463
 30
0.0
 11
3.431149165886375
 21
12.81707517754085
 31
0.0
  0
LINE
  5
C5
330
1F
100
AcDbEntity
  8
0
  6
CONTINUOUS
 62
     7
100
AcDbLine
 10
2.740322884034359
 20
12.80002159379463
 30
0.0
 11
2.740322884034359
 21
17.06654646615608
 31
0.0
  0
LINE
  5
C6
330
1F
100
AcDbEntity
  8
0
  6
CONTINUOUS
 62
     7
100
AcDbLine
 10
2.740322884034359
 20
17.06654646615608
 30
0.0
 11
3.431149165886374
 21
17.04949288240986
 31
0.0
  0
ARC
  5
C7
330
1F
100
AcDbEntity
  8
0
  6
CONTINUOUS
 62
     7
100
AcDbCircle
 10
10.79755937491328
 20
14.93326350900721
 30
0.0
 40
7.664360777553996
100
AcDbArc
 50
163.9716494574694
 51
196.0283505425314
  0
LINE
  5
C8
330
1F
100
AcDbEntity
  8
0
  6
CONTINUOUS
 62
     7
100
AcDbLine
 10
13.97125339033788
 20
17.04949288240986
 30
0.0
 11
14.6620796721899
 21
17.06654646615608
 31
0.0
  0
LINE
  5
C9
330
1F
100
AcDbEntity
  8
0
  6
CONTINUOUS
 62
     7
100
AcDbLine
 10
14.6620796721899
 20
12.80002159379463
 30
0.0
 11
14.6620796721899
 21
17.06654646615608
 31
0.0
  0
LINE
  5
CA
330
1F
100
AcDbEntity
  8
0
  6
CONTINUOUS
 62
     7
100
AcDbLine
 10
13.97125339033788
 20
12.81707517754086
 30
0.0
 11
14.6620796721899
 21
12.80002159379463
 31
0.0
  0
ARC
  5
CB
330
1F
100
AcDbEntity
  8
0
  6
CONTINUOUS
 62
     7
100
AcDbCircle
 10
6.604843181311033
 20
14.9333045509435
 30
0.0
 40
7.664360777553933
100
AcDbArc
 50
343.9716494574701
 51
16.02835054253071
  0
LINE
  5
CC
330
1F
100
AcDbEntity
  8
0
  6
CONTINUOUS
 62
     7
100
AcDbLine
 10
14.70120127811212
 20
12.13328402997536
 30
0.0
 11
14.70120127811212
 21
17.46661736330869
 31
0.0
  0
LINE
  5
CD
330
1F
100
AcDbEntity
  8
0
  6
CONTINUOUS
 62
     7
100
AcDbLine
 10
2.701201278112129
 20
12.13328402997536
 30
0.0
 11
14.70120127811212
 21
12.13328402997536
 31
0.0
  0
LINE
  5
CE
330
1F
100
AcDbEntity
  8
0
  6
CONTINUOUS
 62
     7
100
AcDbLine
 10
14.66786794477879
 20
17.06661736330869
 30
0.0
 11
2.734534611445462
 21
17.06661736330869
 31
0.0
  0
LINE
  5
CF
330
1F
100
AcDbEntity
  8
0
  6
CONTINUOUS
 62
     7
100
AcDbLine
 10
2.734534611445462
 20
12.79995069664202
 30
0.0
 11
2.734534611445462
 21
17.06661736330869
 31
0.0
  0
LINE
  5
D0
330
1F
100
AcDbEntity
  8
0
  6
CONTINUOUS
 62
     7
100
AcDbLine
 10
2.734534611445462
 20
12.79995069664202
 30
0.0
 11
14.66786794477879
 21
12.79995069664202
 31
0.0
  0
LINE
  5
D1
330
1F
100
AcDbEntity
  8
0
  6
CONTINUOUS
 62
     7
100
AcDbLine
 10
14.66786794477879
 20
12.79995069664202
 30
0.0
 11
14.66786794477879
 21
17.06661736330869
 31
0.0
  0
LINE
  5
D2
330
1F
100
AcDbEntity
  8
0
  6
CONTINUOUS
 62
     7
100
AcDbLine
 10
2.701201278112129
 20
17.46661736330869
 30
0.0
 11
2.701201278112129
 21
12.13328402997536
 31
0.0
  0
LINE
  5
D3
330
1F
100
AcDbEntity
  8
0
  6
CONTINUOUS
 62
     7
100
AcDbLine
 10
14.70120127811212
 20
17.46661736330869
 30
0.0
 11
2.701201278112129
 21
17.46661736330869
 31
0.0
  0
ELLIPSE
  5
D4
330
1F
100
AcDbEntity
  8
0
  6
CONTINUOUS
 62
     7
100
AcDbEllipse
 10
2.734534611445462
 20
17.06195069664202
 30
0.0
 11
0.0333333333333332
 21
0.0
 31
0.0
210
0.0
220
0.0
230
1.0
 40
0.1399999999999584
 41
1.396263401595566
 42
1.570796326794896
  0
ELLIPSE
  5
D5
330
1F
100
AcDbEntity
  8
0
  6
CONTINUOUS
 62
     7
100
AcDbEllipse
 10
2.734534611445462
 20
12.80461736330869
 30
0.0
 11
0.0333333333333332
 21
0.0
 31
0.0
210
0.0
220
0.0
230
1.0
 40
0.1399999999999584
 41
4.712388980384691
 42
4.886921905584024
  0
LWPOLYLINE
  5
D6
330
1F
100
AcDbEntity
  8
0
  6
CONTINUOUS
 62
     7
100
AcDbPolyline
 90
       13
 70
   128
 43
0.0
 10
12.64020649045919
 20
16.61329063172414
 10
11.88768566215865
 20
16.61160031842489
 10
11.135146346041
 20
16.61007498520236
 10
10.38258447445048
 20
16.60879862034001
 10
9.818095262762602
 20
16.60807622443764
 10
9.253587990576503
 20
16.60761623629162
 10
8.689073818126853
 20
16.60745051070449
 10
8.124563905648304
 20
16.6076109024788
 10
7.564148524960629
 20
16.60808893130331
 10
7.00374554929327
 20
16.60882237739895
 10
6.443358573626461
 20
16.60975523630919
 10
5.602765830191032
 20
16.61141592398648
 10
4.762196065765063
 20
16.61329063172414
  0
LINE
  5
D7
330
1F
100
AcDbEntity
  8
0
  6
CONTINUOUS
 62
     7
100
AcDbLine
 10
3.431149165886374
 20
17.04949288240986
 30
0.0
 11
4.762196065765063
 21
16.61329063172414
 31
0.0
  0
ELLIPSE
  5
D8
330
1F
100
AcDbEntity
  8
0
  6
CONTINUOUS
 62
     7
100
AcDbEllipse
 10
14.66786794477879
 20
17.06195069664202
 30
0.0
 11
0.0333333333333332
 21
0.0
 31
0.0
210
0.0
220
0.0
230
1.0
 40
0.140000000000065
 41
1.570796326794896
 42
1.745329251994462
  0
LINE
  5
D9
330
1F
100
AcDbEntity
  8
0
  6
CONTINUOUS
 62
     7
100
AcDbLine
 10
13.97125339033788
 20
17.04949288240986
 30
0.0
 11
12.64020649045919
 21
16.61329063172414
 31
0.0
  0
ELLIPSE
  5
DA
330
1F
100
AcDbEntity
  8
0
  6
CONTINUOUS
 62
     7
100
AcDbEllipse
 10
14.66786794477879
 20
12.80461736330869
 30
0.0
 11
0.0333333333333332
 21
0.0
 31
0.0
210
0.0
220
0.0
230
1.0
 40
0.1400000000000117
 41
4.537856055185259
 42
4.712388980384691
  0
LWPOLYLINE
  5
DB
330
1F
100
AcDbEntity
  8
0
  6
CONTINUOUS
 62
     7
100
AcDbPolyline
 90
      103
 70
   128
 43
0.0
 10
8.701201278112129
 20
12.875316323028
 10
8.711871835175346
 20
12.87527074166839
 10
8.722501915160679
 20
12.87513417049525
 10
8.733051194533668
 20
12.87490712756983
 10
8.743479656264248
 20
12.87459047414371
 10
8.753747741625057
 20
12.8741854113918
 10
8.763816500251236
 20
12.87369347585586
 10
8.773647737892504
 20
12.87311653361588
 10
8.783204161297037
 20
12.87245677321139
 10
8.792449519677537
 20
12.87171669733959
 10
8.801348742222893
 20
12.87089911336177
 10
8.809868071133774
 20
12.87000712265398
 10
8.817975189677532
 20
12.86904410884252
 10
8.825639344776632
 20
12.86801372496863
 10
8.832831463665611
 20
12.86691987963128
 10
8.839524264174038
 20
12.8657667221605
 10
8.845692358217123
 20
12.86455862687757
 10
8.851312348101432
 20
12.86330017650169
 10
8.856362915280341
 20
12.86199614476619
 10
8.860824901222589
 20
12.86065147831012
 10
8.864681380087152
 20
12.85927127791391
 10
8.867917722928751
 20
12.85786077915044
 10
8.87052165319046
 20
12.85642533252464
 10
8.872483293272882
 20
12.85497038317724
 10
8.873795202003268
 20
12.85350145022948
 10
8.874452402862445
 20
12.85202410584716
 10
8.874452402862445
 20
12.85054395410358
 10
8.873795202003268
 20
12.84906660972126
 10
8.872483293272882
 20
12.8475976767735
 10
8.87052165319046
 20
12.8461427274261
 10
8.867917722928751
 20
12.8447072808003
 10
8.86468138008715
 20
12.84329678203683
 10
8.860824901222587
 20
12.84191658164062
 10
8.856362915280339
 20
12.84057191518455
 10
8.851312348101432
 20
12.83926788344905
 10
8.845692358217123
 20
12.83800943307317
 10
8.839524264174036
 20
12.83680133779024
 10
8.832831463665611
 20
12.83564818031946
 10
8.825639344776632
 20
12.8345543349821
 10
8.817975189677532
 20
12.83352395110822
 10
8.809868071133774
 20
12.83256093729676
 10
8.801348742222891
 20
12.83166894658897
 10
8.792449519677536
 20
12.83085136261115
 10
8.783204161297037
 20
12.83011128673935
 10
8.773647737892504
 20
12.82945152633486
 10
8.763816500251234
 20
12.82887458409488
 10
8.753747741625057
 20
12.82838264855894
 10
8.743479656264247
 20
12.82797758580703
 10
8.733051194533667
 20
12.82766093238091
 10
8.722501915160679
 20
12.82743388945549
 10
8.711871835175344
 20
12.82729731828235
 10
8.701201278112128
 20
12.82725173692274
 10
8.690530721048911
 20
12.82729731828235
 10
8.679900641063577
 20
12.82743388945549
 10
8.669351361690589
 20
12.82766093238091
 10
8.658922899960009
 20
12.82797758580703
 10
8.648654814599201
 20
12.82838264855894
 10
8.638586055973021
 20
12.82887458409488
 10
8.628754818331751
 20
12.82945152633486
 10
8.619198394927218
 20
12.83011128673935
 10
8.609953036546718
 20
12.83085136261115
 10
8.601053814001364
 20
12.83166894658897
 10
8.592534485090483
 20
12.83256093729676
 10
8.584427366546723
 20
12.83352395110822
 10
8.576763211447623
 20
12.83455433498211
 10
8.569571092558645
 20
12.83564818031946
 10
8.562878292050219
 20
12.83680133779024
 10
8.556710198007133
 20
12.83800943307317
 10
8.551090208122824
 20
12.83926788344905
 10
8.546039640943916
 20
12.84057191518455
 10
8.541577655001669
 20
12.84191658164062
 10
8.537721176137106
 20
12.84329678203683
 10
8.534484833295506
 20
12.8447072808003
 10
8.531880903033798
 20
12.8461427274261
 10
8.529919262951377
 20
12.8475976767735
 10
8.528607354220989
 20
12.84906660972126
 10
8.52795015336181
 20
12.85054395410358
 10
8.52795015336181
 20
12.85202410584716
 10
8.528607354220989
 20
12.85350145022948
 10
8.529919262951377
 20
12.85497038317724
 10
8.531880903033798
 20
12.85642533252464
 10
8.534484833295506
 20
12.85786077915044
 10
8.537721176137107
 20
12.85927127791391
 10
8.54157765500167
 20
12.86065147831012
 10
8.546039640943918
 20
12.86199614476619
 10
8.551090208122825
 20
12.86330017650169
 10
8.556710198007134
 20
12.86455862687757
 10
8.562878292050221
 20
12.8657667221605
 10
8.569571092558646
 20
12.86691987963128
 10
8.576763211447627
 20
12.86801372496864
 10
8.584427366546727
 20
12.86904410884252
 10
8.592534485090483
 20
12.87000712265398
 10
8.601053814001366
 20
12.87089911336177
 10
8.609953036546722
 20
12.87171669733959
 10
8.619198394927222
 20
12.87245677321139
 10
8.628754818331755
 20
12.87311653361588
 10
8.638586055973023
 20
12.87369347585586
 10
8.648654814599202
 20
12.8741854113918
 10
8.65892289996001
 20
12.87459047414371
 10
8.669351361690592
 20
12.87490712756983
 10
8.67990064106358
 20
12.87513417049525
 10
8.690530721048913
 20
12.87527074166839
 10
8.701201278112129
 20
12.875316323028
  0
LWPOLYLINE
  5
DC
330
1F
100
AcDbEntity
  8
0
  6
CONTINUOUS
 62
     7
100
AcDbPolyline
 90
       17
 70
   128
 43
0.0
 10
4.768808098468953
 20
13.25544428166153
 10
5.752383410119983
 20
13.2581496686336
 10
6.735966266807842
 20
13.26080145833724
 10
7.227765620941268
 20
13.26208675010975
 10
7.719575624914559
 20
13.26328962317511
 10
7.965499514500313
 20
13.26383792076617
 10
8.211434345187768
 20
13.26430344462295
 10
8.45737775482104
 20
13.26462601341378
 10
8.703327381244237
 20
13.26474544580698
 10
8.948980923736446
 20
13.26462240965187
 10
9.194628137053793
 20
13.2642976320232
 10
9.440266764894266
 20
13.26383102835674
 10
9.685894550955842
 20
13.26328251408822
 10
10.17718318842472
 20
13.26208022197336
 10
10.66846124523334
 20
13.26079608869005
 10
11.65103161059169
 20
13.25814688708246
 10
12.6335944577553
 20
13.25544428166153
  0
LINE
  5
DD
330
1F
100
AcDbEntity
  8
0
  6
CONTINUOUS
 62
     7
100
AcDbLine
 10
13.97125339033788
 20
12.81707517754086
 30
0.0
 11
12.6335944577553
 21
13.25544428166153
 31
0.0
  0
LINE
  5
DE
330
1F
100
AcDbEntity
  8
0
  6
CONTINUOUS
 62
     7
100
AcDbLine
 10
4.768808098468953
 20
13.25544428166153
 30
0.0
 11
3.431149165886375
 21
12.81707517754085
 31
0.0
  0
ARC
  5
DF
330
1F
100
AcDbEntity
  8
0
  6
CONTINUOUS
 62
     7
100
AcDbCircle
 10
12.97822358785713
 20
14.95089135278494
 30
0.0
 40
8.382663267028414
100
AcDbArc
 50
168.5566608105317
 51
191.6689367060192
  0
ARC
  5
E0
330
1F
100
AcDbEntity
  8
0
  6
CONTINUOUS
 62
     7
100
AcDbCircle
 10
4.422681537356005
 20
14.95089818521495
 30
0.0
 40
8.384131137181398
100
AcDbArc
 50
348.3330872968593
 51
11.44131571350314
  0
LWPOLYLINE
  5
E1
330
1F
100
AcDbEntity
  8
0
  6
CONTINUOUS
 62
     7
100
AcDbPolyline
 90
       20
 70
   128
 43
0.0
 10
8.701201278112129
 20
12.8555094880945
 10
8.690530721048911
 20
12.85546390673489
 10
8.679900641063579
 20
12.85532733556175
 10
8.669351361690589
 20
12.85510029263633
 10
8.65892289996001
 20
12.85478363921021
 10
8.648654814599201
 20
12.8543785764583
 10
8.638586055973021
 20
12.85388664092236
 10
8.628754818331753
 20
12.85330969868238
 10
8.61919839492722
 20
12.85264993827789
 10
8.60995303654672
 20
12.8519098624061
 10
8.601053814001364
 20
12.85109227842827
 10
8.592534485090483
 20
12.85020028772049
 10
8.584427366546727
 20
12.84923727390903
 10
8.576763211447625
 20
12.84820689003514
 10
8.569571092558646
 20
12.84711304469778
 10
8.562878292050219
 20
12.845959887227
 10
8.556710198007134
 20
12.84475179194407
 10
8.551090208122825
 20
12.84349334156819
 10
8.546039640943916
 20
12.84218930983269
 10
8.543269635847703
 20
12.8413806125084
  0
LWPOLYLINE
  5
E2
330
1F
100
AcDbEntity
  8
0
  6
CONTINUOUS
 62
     7
100
AcDbPolyline
 90
       20
 70
   128
 43
0.0
 10
8.859132920376646
 20
12.84138061250837
 10
8.856362915280339
 20
12.84218930983269
 10
8.851312348101432
 20
12.84349334156819
 10
8.845692358217123
 20
12.84475179194407
 10
8.839524264174036
 20
12.84595988722701
 10
8.832831463665611
 20
12.84711304469778
 10
8.825639344776631
 20
12.84820689003514
 10
8.817975189677531
 20
12.84923727390903
 10
8.809868071133774
 20
12.85020028772049
 10
8.801348742222891
 20
12.85109227842827
 10
8.792449519677536
 20
12.8519098624061
 10
8.783204161297037
 20
12.85264993827789
 10
8.773647737892503
 20
12.85330969868238
 10
8.763816500251234
 20
12.85388664092236
 10
8.753747741625055
 20
12.8543785764583
 10
8.743479656264247
 20
12.85478363921021
 10
8.733051194533665
 20
12.85510029263633
 10
8.722501915160677
 20
12.85532733556175
 10
8.711871835175344
 20
12.85546390673489
 10
8.701201278112129
 20
12.8555094880945
  0
CIRCLE
  5
E3
330
1F
100
AcDbEntity
  8
0
  6
CONTINUOUS
 62
     7
100
AcDbCircle
 10
8.701201278112129
 20
13.93328402997538
 30
0.0
 40
0.3665179007108019
  0
CIRCLE
  5
E4
330
1F
100
AcDbEntity
  8
0
  6
CONTINUOUS
 62
     7
100
AcDbCircle
 10
8.701201278112129
 20
13.93328402997538
 30
0.0
 40
0.173333333333332
  0
VIEWPORT
  5
F4
330
23
100
AcDbEntity
 67
     1
  8
0
100
AcDbViewport
 10
145.3409271240234
 20
101.7799179553985
 30
0.0
 40
371.9830808355589
 41
222.0846062927246
 68
     1
 69
     1
1001
ACAD
1000
MVIEW
1002
{
1070
    16
1010
0.0
1020
0.0
1030
0.0
1010
0.0
1020
0.0
1030
1.0
1040
0.0
1040
222.0846062927246
1040
145.3409271240234
1040
101.7799179553985
1040
50.0
1040
0.0
1040
0.0
1070
     0
1070
  2000
1070
     1
1070
     1
1070
     0
1070
     0
1070
     0
1070
     0
1040
0.0
1040
0.0
1040
0.0
1040
10.0
1040
10.0
1040
10.0
1040
10.0
1070
     0
1002
{
1002
}
1002
}
  0
VIEWPORT
  5
F6
330
23
100
AcDbEntity
 67
     1
  8
0
100
AcDbViewport
 10
145.3409210443496
 20
101.7799164056778
 30
0.0
 40
232.5454736709594
 41
162.8478662490844
 68
     2
 69
     2
1001
ACAD
1000
MVIEW
1002
{
1070
    16
1010
0.0
1020
0.0
1030
0.0
1010
0.0
1020
0.0
1030
1.0
1040
0.0
1040
12.00905591820212
1040
8.701398530010372
1040
11.53900914434228
1040
50.0
1040
0.0
1040
0.0
1070
     0
1070
  2000
1070
     1
1070
     3
1070
     0
1070
     0
1070
     0
1070
     0
1040
0.0
1040
0.0
1040
0.0
1040
10.0
1040
10.0
1040
10.0
1040
10.0
1070
     0
1002
{
1002
}
1002
}
  0
ENDSEC
  0
SECTION
  2
OBJECTS
  0
DICTIONARY
  5
C
330
0
100
AcDbDictionary
  3
ACAD_GROUP
350
D
  3
ACAD_LAYOUT
350
1A
  3
ACAD_MLINESTYLE
350
17
  3
ACAD_PLOTSETTINGS
350
19
  3
ACAD_PLOTSTYLENAME
350
E
  3
ACDBHEADERROUNDTRIPXREC
350
140
  3
ACDBVARIABLEDICTIONARY
350
13A
  0
DICTIONARY
  5
F8
330
1F
100
AcDbDictionary
280
     1
  3
ACAD_LAYOUTSELFREF
360
162
  0
DICTIONARY
  5
FA
330
23
100
AcDbDictionary
280
     1
  3
ACAD_LAYOUTSELFREF
360
163
  0
DICTIONARY
  5
D
102
{ACAD_REACTORS
330
C
102
}
330
C
100
AcDbDictionary
  0
DICTIONARY
  5
1A
102
{ACAD_REACTORS
330
C
102
}
330
C
100
AcDbDictionary
  0
DICTIONARY
  5
17
102
{ACAD_REACTORS
330
C
102
}
330
C
100
AcDbDictionary
  3
STANDARD
350
18
  0
DICTIONARY
  5
19
102
{ACAD_REACTORS
330
C
102
}
330
C
100
AcDbDictionary
  0
ACDBDICTIONARYWDFLT
  5
E
102
{ACAD_REACTORS
330
C
102
}
330
C
100
AcDbDictionary
281
     1
  3
Normal
350
F
100
AcDbDictionaryWithDefault
340
F
  0
DICTIONARY
  5
140
102
{ACAD_REACTORS
330
C
102
}
330
C
100
AcDbDictionary
  3
CEPSNTYPE
350
14A
  3
DIMSTYLEDATA
350
14E
  3
FINGERPRINTGUID
350
14B
  3
HYPERLINKBASE
350
143
  3
INSUNITS
350
149
  3
LAYOUTDICT
350
145
  3
LWETCUNION
350
148
  3
PLOTSETDICT
350
146
  3
PLOTSTYLNAMDICT
350
147
  3
PSVPSCALE
350
14D
  3
PUCSBASE
350
151
  3
PUCSORGBACK
350
157
  3
PUCSORGBOTTOM
350
153
  3
PUCSORGFRONT
350
156
  3
PUCSORGLEFT
350
154
  3
PUCSORGRIGHT
350
155
  3
PUCSORGTOP
350
152
  3
PUCSORTHOREF
350
14F
  3
PUCSORTHOVIEW
350
150
  3
STYLESHEET
350
144
  3
TSTACKALIGN
350
141
  3
TSTACKSIZE
350
142
  3
UCSBASE
350
15A
  3
UCSORGBACK
350
160
  3
UCSORGBOTTOM
350
15C
  3
UCSORGFRONT
350
15F
  3
UCSORGLEFT
350
15D
  3
UCSORGRIGHT
350
15E
  3
UCSORGTOP
350
15B
  3
UCSORTHOREF
350
158
  3
UCSORTHOVIEW
350
159
  3
VERSIONGUID
350
14C
  0
DICTIONARY
  5
13A
102
{ACAD_REACTORS
330
C
102
}
330
C
100
AcDbDictionary
  3
DIMASSOC
350
13B
  0
XRECORD
  5
162
102
{ACAD_REACTORS
330
F8
102
}
330
F8
100
AcDbXrecord
340
1F
  0
XRECORD
  5
163
102
{ACAD_REACTORS
330
FA
102
}
330
FA
100
AcDbXrecord
340
23
  0
MLINESTYLE
  5
18
102
{ACAD_REACTORS
330
17
102
}
330
17
100
AcDbMlineStyle
  2
STANDARD
 70
     0
  3

 62
   256
 51
90.0
 52
90.0
 71
     2
 49
0.5
 62
   256
  6
BYLAYER
 49
-0.5
 62
   256
  6
BYLAYER
  0
ACDBPLACEHOLDER
  5
F
102
{ACAD_REACTORS
330
E
102
}
330
E
100
AcDbPlaceHolder
280
     0
  0
XRECORD
  5
14A
102
{ACAD_REACTORS
330
140
102
}
330
140
100
AcDbXrecord
 90
        0
  0
XRECORD
  5
14E
102
{ACAD_REACTORS
330
140
102
}
330
140
100
AcDbXrecord
1000
DSTYLE
1002
{
1070
   278
 70
    44
1002
}
  0
XRECORD
  5
14B
102
{ACAD_REACTORS
330
140
102
}
330
140
100
AcDbXrecord
  1
{3C8304BC-FCFF-4B38-B936-A55A79BFE80F}
  0
XRECORD
  5
143
102
{ACAD_REACTORS
330
140
102
}
330
140
100
AcDbXrecord
  1

  0
XRECORD
  5
149
102
{ACAD_REACTORS
330
140
102
}
330
140
100
AcDbXrecord
 90
        4
  0
XRECORD
  5
145
102
{ACAD_REACTORS
330
140
102
}
330
140
100
AcDbXrecord
340
1A
  0
XRECORD
  5
148
102
{ACAD_REACTORS
330
140
102
}
330
140
100
AcDbXrecord
 90
    10781
  0
XRECORD
  5
146
102
{ACAD_REACTORS
330
140
102
}
330
140
100
AcDbXrecord
340
19
  0
XRECORD
  5
147
102
{ACAD_REACTORS
330
140
102
}
330
140
100
AcDbXrecord
340
E
  0
XRECORD
  5
14D
102
{ACAD_REACTORS
330
140
102
}
330
140
100
AcDbXrecord
 40
0.0
  0
XRECORD
  5
151
102
{ACAD_REACTORS
330
140
102
}
330
140
100
AcDbXrecord
340
0
  0
XRECORD
  5
157
102
{ACAD_REACTORS
330
140
102
}
330
140
100
AcDbXrecord
 10
0.0
 20
0.0
 30
0.0
  0
XRECORD
  5
153
102
{ACAD_REACTORS
330
140
102
}
330
140
100
AcDbXrecord
 10
0.0
 20
0.0
 30
0.0
  0
XRECORD
  5
156
102
{ACAD_REACTORS
330
140
102
}
330
140
100
AcDbXrecord
 10
0.0
 20
0.0
 30
0.0
  0
XRECORD
  5
154
102
{ACAD_REACTORS
330
140
102
}
330
140
100
AcDbXrecord
 10
0.0
 20
0.0
 30
0.0
  0
XRECORD
  5
155
102
{ACAD_REACTORS
330
140
102
}
330
140
100
AcDbXrecord
 10
0.0
 20
0.0
 30
0.0
  0
XRECORD
  5
152
102
{ACAD_REACTORS
330
140
102
}
330
140
100
AcDbXrecord
 10
0.0
 20
0.0
 30
0.0
  0
XRECORD
  5
14F
102
{ACAD_REACTORS
330
140
102
}
330
140
100
AcDbXrecord
340
0
  0
XRECORD
  5
150
102
{ACAD_REACTORS
330
140
102
}
330
140
100
AcDbXrecord
 70
     0
  0
XRECORD
  5
144
102
{ACAD_REACTORS
330
140
102
}
330
140
100
AcDbXrecord
  1

  0
XRECORD
  5
141
102
{ACAD_REACTORS
330
140
102
}
330
140
100
AcDbXrecord
 90
        1
  0
XRECORD
  5
142
102
{ACAD_REACTORS
330
140
102
}
330
140
100
AcDbXrecord
 90
       70
  0
XRECORD
  5
15A
102
{ACAD_REACTORS
330
140
102
}
330
140
100
AcDbXrecord
340
0
  0
XRECORD
  5
160
102
{ACAD_REACTORS
330
140
102
}
330
140
100
AcDbXrecord
 10
0.0
 20
0.0
 30
0.0
  0
XRECORD
  5
15C
102
{ACAD_REACTORS
330
140
102
}
330
140
100
AcDbXrecord
 10
0.0
 20
0.0
 30
0.0
  0
XRECORD
  5
15F
102
{ACAD_REACTORS
330
140
102
}
330
140
100
AcDbXrecord
 10
0.0
 20
0.0
 30
0.0
  0
XRECORD
  5
15D
102
{ACAD_REACTORS
330
140
102
}
330
140
100
AcDbXrecord
 10
0.0
 20
0.0
 30
0.0
  0
XRECORD
  5
15E
102
{ACAD_REACTORS
330
140
102
}
330
140
100
AcDbXrecord
 10
0.0
 20
0.0
 30
0.0
  0
XRECORD
  5
15B
102
{ACAD_REACTORS
330
140
102
}
330
140
100
AcDbXrecord
 10
0.0
 20
0.0
 30
0.0
  0
XRECORD
  5
158
102
{ACAD_REACTORS
330
140
102
}
330
140
100
AcDbXrecord
340
0
  0
XRECORD
  5
159
102
{ACAD_REACTORS
330
140
102
}
330
140
100
AcDbXrecord
 70
     0
  0
XRECORD
  5
14C
102
{ACAD_REACTORS
330
140
102
}
330
140
100
AcDbXrecord
  1
{7AB074F3-982C-4B54-A16C-2374AD715649}
  0
DICTIONARYVAR
  5
13B
102
{ACAD_REACTORS
330
13A
102
}
330
13A
100
DictionaryVariables
280
     0
  1
1
  0
ENDSEC
  0
EOF
