  0
SECTION
  2
HEADER
  9
$ACADVER
  1
AC1014
  9
$ACADMAINTVER
 70
     9
  9
$DWGCODEPAGE
  3
ANSI_1250
  9
$INSBASE
 10
0.0
 20
0.0
 30
0.0
  9
$EXTMIN
 10
1.877549814988803
 20
3.39436345616631
 30
-0.0015258207003583
  9
$EXTMAX
 10
14.54636540795487
 20
17.43580631915923
 30
0.0000000349246037
  9
$LIMMIN
 10
0.0
 20
0.0
  9
$LIMMAX
 10
0.0
 20
0.0
  9
$ORTHOMODE
 70
     0
  9
$REGENMODE
 70
     1
  9
$FILLMODE
 70
     1
  9
$QTEXTMODE
 70
     0
  9
$MIRRTEXT
 70
     1
  9
$DRAGMODE
 70
     2
  9
$LTSCALE
 40
1.0
  9
$OSMODE
 70
   959
  9
$ATTMODE
 70
     1
  9
$TEXTSIZE
 40
2.5
  9
$TRACEWID
 40
1.0
  9
$TEXTSTYLE
  7
STANDARD
  9
$CLAYER
  8
0
  9
$CELTYPE
  6
BYLAYER
  9
$CECOLOR
 62
   256
  9
$CELTSCALE
 40
1.0
  9
$DELOBJ
 70
     1
  9
$DISPSILH
 70
     0
  9
$DIMSCALE
 40
1.0
  9
$DIMASZ
 40
0.3
  9
$DIMEXO
 40
0.1
  9
$DIMDLI
 40
3.75
  9
$DIMRND
 40
0.0
  9
$DIMDLE
 40
0.0
  9
$DIMEXE
 40
0.1
  9
$DIMTP
 40
0.0
  9
$DIMTM
 40
0.0
  9
$DIMTXT
 40
0.2822222222222222
  9
$DIMCEN
 40
2.5
  9
$DIMTSZ
 40
0.0
  9
$DIMTOL
 70
     0
  9
$DIMLIM
 70
     0
  9
$DIMTIH
 70
     1
  9
$DIMTOH
 70
     1
  9
$DIMSE1
 70
     0
  9
$DIMSE2
 70
     0
  9
$DIMTAD
 70
     1
  9
$DIMZIN
 70
     0
  9
$DIMBLK
  1

  9
$DIMASO
 70
     1
  9
$DIMSHO
 70
     1
  9
$DIMPOST
  1

  9
$DIMAPOST
  1

  9
$DIMALT
 70
     0
  9
$DIMALTD
 70
     3
  9
$DIMALTF
 40
0.3937007874015748
  9
$DIMLFAC
 40
15.0
  9
$DIMTOFL
 70
     1
  9
$DIMTVP
 40
0.0
  9
$DIMTIX
 70
     0
  9
$DIMSOXD
 70
     0
  9
$DIMSAH
 70
     0
  9
$DIMBLK1
  1

  9
$DIMBLK2
  1

  9
$DIMSTYLE
  2
ISO-25
  9
$DIMCLRD
 70
     0
  9
$DIMCLRE
 70
     0
  9
$DIMCLRT
 70
     0
  9
$DIMTFAC
 40
1.0
  9
$DIMGAP
 40
0.1524
  9
$DIMJUST
 70
     0
  9
$DIMSD1
 70
     0
  9
$DIMSD2
 70
     0
  9
$DIMTOLJ
 70
     0
  9
$DIMTZIN
 70
     0
  9
$DIMALTZ
 70
     0
  9
$DIMALTTZ
 70
     0
  9
$DIMFIT
 70
     3
  9
$DIMUPT
 70
     0
  9
$DIMUNIT
 70
     2
  9
$DIMDEC
 70
     2
  9
$DIMTDEC
 70
     2
  9
$DIMALTU
 70
     2
  9
$DIMALTTD
 70
     3
  9
$DIMTXSTY
  7
STANDARD
  9
$DIMAUNIT
 70
     0
  9
$LUNITS
 70
     2
  9
$LUPREC
 70
     1
  9
$SKETCHINC
 40
1.0
  9
$FILLETRAD
 40
10.0
  9
$AUNITS
 70
     0
  9
$AUPREC
 70
     0
  9
$MENU
  1
.
  9
$ELEVATION
 40
0.0
  9
$PELEVATION
 40
0.0
  9
$THICKNESS
 40
0.0
  9
$LIMCHECK
 70
     0
  9
$BLIPMODE
 70
     0
  9
$CHAMFERA
 40
10.0
  9
$CHAMFERB
 40
10.0
  9
$CHAMFERC
 40
20.0
  9
$CHAMFERD
 40
0.0
  9
$SKPOLY
 70
     0
  9
$TDCREATE
 40
2454418.373256111
  9
$TDUPDATE
 40
2454420.393191007
  9
$TDINDWG
 40
0.0008342477
  9
$TDUSRTIMER
 40
0.0008342477
  9
$USRTIMER
 70
     1
  9
$ANGBASE
 50
0.0
  9
$ANGDIR
 70
     0
  9
$PDMODE
 70
     0
  9
$PDSIZE
 40
-1.0
  9
$PLINEWID
 40
0.0
  9
$COORDS
 70
     0
  9
$SPLFRAME
 70
     0
  9
$SPLINETYPE
 70
     6
  9
$SPLINESEGS
 70
     8
  9
$ATTDIA
 70
     0
  9
$ATTREQ
 70
     1
  9
$HANDLING
 70
 22529
  9
$HANDSEED
  5
2EC
  9
$SURFTAB1
 70
     6
  9
$SURFTAB2
 70
     6
  9
$SURFTYPE
 70
     6
  9
$SURFU
 70
     6
  9
$SURFV
 70
     6
  9
$UCSNAME
  2

  9
$UCSORG
 10
0.0
 20
0.0
 30
0.0
  9
$UCSXDIR
 10
1.0
 20
0.0
 30
0.0
  9
$UCSYDIR
 10
0.0
 20
1.0
 30
0.0
  9
$PUCSNAME
  2

  9
$PUCSORG
 10
0.0
 20
0.0
 30
0.0
  9
$PUCSXDIR
 10
1.0
 20
0.0
 30
0.0
  9
$PUCSYDIR
 10
0.0
 20
1.0
 30
0.0
  9
$USERI1
 70
     0
  9
$USERI2
 70
     0
  9
$USERI3
 70
     0
  9
$USERI4
 70
     0
  9
$USERI5
 70
     0
  9
$USERR1
 40
0.0
  9
$USERR2
 40
0.0
  9
$USERR3
 40
0.0
  9
$USERR4
 40
0.0
  9
$USERR5
 40
0.0
  9
$WORLDVIEW
 70
     1
  9
$SHADEDGE
 70
     3
  9
$SHADEDIF
 70
    70
  9
$TILEMODE
 70
     1
  9
$MAXACTVP
 70
    64
  9
$PINSBASE
 10
0.0
 20
0.0
 30
0.0
  9
$PLIMCHECK
 70
     0
  9
$PEXTMIN
 10
1.000000000000000E+20
 20
1.000000000000000E+20
 30
1.000000000000000E+20
  9
$PEXTMAX
 10
-1.000000000000000E+20
 20
-1.000000000000000E+20
 30
-1.000000000000000E+20
  9
$PLIMMIN
 10
0.0
 20
0.0
  9
$PLIMMAX
 10
420.0
 20
297.0
  9
$UNITMODE
 70
     0
  9
$VISRETAIN
 70
     1
  9
$PLINEGEN
 70
     0
  9
$PSLTSCALE
 70
     1
  9
$TREEDEPTH
 70
  3020
  9
$PICKSTYLE
 70
     1
  9
$CMLSTYLE
  2
STANDARD
  9
$CMLJUST
 70
     0
  9
$CMLSCALE
 40
20.0
  9
$PROXYGRAPHICS
 70
     1
  9
$MEASUREMENT
 70
     1
  0
ENDSEC
  0
SECTION
  2
CLASSES
  0
CLASS
  1
ACDBDICTIONARYWDFLT
  2
AcDbDictionaryWithDefault
  3
AutoCAD 2000
 90
        0
280
     0
281
     0
  0
CLASS
  1
ACDBPLACEHOLDER
  2
AcDbPlaceHolder
  3
AutoCAD 2000
 90
        0
280
     0
281
     0
  0
CLASS
  1
LAYOUT
  2
AcDbLayout
  3
AutoCAD 2000
 90
        0
280
     0
281
     0
  0
CLASS
  1
DICTIONARYVAR
  2
AcDbDictionaryVar
  3
AutoCAD 2000
 90
        0
280
     0
281
     0
  0
CLASS
  1
LONG_TRANSACTION
  2
AcDbLongTransaction
  3
AutoCAD 2000
 90
        0
280
     0
281
     0
  0
CLASS
  1
LWPOLYLINE
  2
AcDbPolyline
  3
AutoCAD 2000
 90
        0
280
     0
281
     1
  0
CLASS
  1
HATCH
  2
AcDbHatch
  3
AutoCAD 2000
 90
        0
280
     0
281
     1
  0
CLASS
  1
XRECORD
  2
AcDbXrecord
  3
AutoCAD 2000
 90
        0
280
     0
281
     0
  0
ENDSEC
  0
SECTION
  2
TABLES
  0
TABLE
  2
VPORT
  5
8
330
0
100
AcDbSymbolTable
 70
     4
  0
VPORT
  5
2C4
330
8
100
AcDbSymbolTableRecord
100
AcDbViewportTableRecord
  2
*ACTIVE
 70
     0
 10
0.0
 20
0.0
 11
1.0
 21
1.0
 12
8.211957611471838
 22
10.41508488766277
 13
0.0
 23
0.0
 14
10.0
 24
10.0
 15
10.0
 25
10.0
 16
0.0
 26
0.0
 36
1.0
 17
0.0
 27
0.0
 37
0.0
 40
14.12741088052145
 41
1.884576098059244
 42
50.0
 43
0.0
 44
0.0
 50
0.0
 51
0.0
 71
     0
 72
  2000
 73
     1
 74
     3
 75
     0
 76
     0
 77
     0
 78
     0
  0
ENDTAB
  0
TABLE
  2
LTYPE
  5
5
330
0
100
AcDbSymbolTable
 70
     6
  0
LTYPE
  5
14
330
5
100
AcDbSymbolTableRecord
100
AcDbLinetypeTableRecord
  2
BYBLOCK
 70
     0
  3

 72
    65
 73
     0
 40
0.0
  0
LTYPE
  5
15
330
5
100
AcDbSymbolTableRecord
100
AcDbLinetypeTableRecord
  2
BYLAYER
 70
     0
  3

 72
    65
 73
     0
 40
0.0
  0
LTYPE
  5
16
330
5
100
AcDbSymbolTableRecord
100
AcDbLinetypeTableRecord
  2
CONTINUOUS
 70
     0
  3
Solid line
 72
    65
 73
     0
 40
0.0
  0
ENDTAB
  0
TABLE
  2
LAYER
  5
2
330
0
100
AcDbSymbolTable
 70
     3
  0
LAYER
  5
10
330
2
100
AcDbSymbolTableRecord
100
AcDbLayerTableRecord
  2
0
 70
     0
 62
     7
  6
CONTINUOUS
  0
ENDTAB
  0
TABLE
  2
STYLE
  5
3
330
0
100
AcDbSymbolTable
 70
     4
  0
STYLE
  5
11
330
3
100
AcDbSymbolTableRecord
100
AcDbTextStyleTableRecord
  2
STANDARD
 70
     0
 40
0.0
 41
1.0
 50
0.0
 71
     0
 42
2.5
  3
ARIAL.TTF
  4

1001
ACAD
1000
Arial
1071
       34
  0
ENDTAB
  0
TABLE
  2
VIEW
  5
6
330
0
100
AcDbSymbolTable
 70
     0
  0
ENDTAB
  0
TABLE
  2
UCS
  5
7
330
0
100
AcDbSymbolTable
 70
     0
  0
ENDTAB
  0
TABLE
  2
APPID
  5
9
330
0
100
AcDbSymbolTable
 70
     1
  0
APPID
  5
12
330
9
100
AcDbSymbolTableRecord
100
AcDbRegAppTableRecord
  2
ACAD
 70
     0
  0
ENDTAB
  0
TABLE
  2
DIMSTYLE
  5
A
330
0
100
AcDbSymbolTable
 70
     5
  0
DIMSTYLE
105
27
330
A
100
AcDbSymbolTableRecord
100
AcDbDimStyleTableRecord
  2
ISO-25
 70
     0
  3

  4

  5

  6

  7

 40
1.0
 41
2.5
 42
0.625
 43
3.75
 44
1.25
 45
0.0
 46
0.0
 47
0.0
 48
0.0
140
2.5
141
2.5
142
0.0
143
0.03937007874016
144
1.0
145
0.0
146
1.0
147
0.625
 71
     0
 72
     0
 73
     0
 74
     0
 75
     0
 76
     0
 77
     1
 78
     8
170
     0
171
     3
172
     1
173
     0
174
     0
175
     0
176
     0
177
     0
178
     0
270
     2
271
     2
272
     2
273
     2
274
     3
340
11
275
     0
280
     0
281
     0
282
     0
283
     0
284
     8
285
     0
286
     0
287
     3
288
     0
  0
ENDTAB
  0
TABLE
  2
BLOCK_RECORD
  5
1
330
0
100
AcDbSymbolTable
 70
    23
  0
BLOCK_RECORD
  5
1F
102
{ACAD_XDICTIONARY
360
2E8
102
}
330
1
100
AcDbSymbolTableRecord
100
AcDbBlockTableRecord
  2
*MODEL_SPACE
  0
BLOCK_RECORD
  5
1B
102
{ACAD_XDICTIONARY
360
2E6
102
}
330
1
100
AcDbSymbolTableRecord
100
AcDbBlockTableRecord
  2
*PAPER_SPACE
  0
ENDTAB
  0
ENDSEC
  0
SECTION
  2
BLOCKS
  0
BLOCK
  5
20
330
1F
100
AcDbEntity
  8
0
100
AcDbBlockBegin
  2
*MODEL_SPACE
 70
     0
 10
0.0
 20
0.0
 30
0.0
  3
*MODEL_SPACE
  1

  0
ENDBLK
  5
21
330
1F
100
AcDbEntity
  8
0
100
AcDbBlockEnd
  0
BLOCK
  5
1C
330
1B
100
AcDbEntity
 67
     1
  8
0
100
AcDbBlockBegin
  2
*PAPER_SPACE
 70
     0
 10
0.0
 20
0.0
 30
0.0
  3
*PAPER_SPACE
  1

  0
ENDBLK
  5
1D
330
1B
100
AcDbEntity
 67
     1
  8
0
100
AcDbBlockEnd
  0
ENDSEC
  0
SECTION
  2
ENTITIES
  0
LINE
  5
D5
330
1F
100
AcDbEntity
  8
0
100
AcDbLine
 10
7.646226946736686
 20
3.585397030997236
 30
0.0
 11
7.646226946736686
 21
3.395400298667972
 31
0.0
  0
LINE
  5
D6
330
1F
100
AcDbEntity
  8
0
100
AcDbLine
 10
7.646226946736686
 20
3.395400298667972
 30
0.0
 11
4.450753602097561
 21
3.478365350241005
 31
0.0
  0
LINE
  5
D7
330
1F
100
AcDbEntity
  8
0
100
AcDbLine
 10
4.303884172311856
 20
3.65347432235145
 30
0.0
 11
4.450753602097561
 21
3.478365350241005
 31
0.0
  0
LINE
  5
D8
330
1F
100
AcDbEntity
  8
0
100
AcDbLine
 10
7.646226946736686
 20
3.395400298667972
 30
0.0
 11
8.779660137004995
 21
3.395400298667972
 31
0.0
  0
LINE
  5
D9
330
1F
100
AcDbEntity
  8
0
100
AcDbLine
 10
12.12200291142982
 20
3.65347432235145
 30
0.0
 11
11.97513348164412
 21
3.478365350241005
 31
0.0
  0
LINE
  5
DA
330
1F
100
AcDbEntity
  8
0
100
AcDbLine
 10
8.779660137004995
 20
3.395400298667972
 30
0.0
 11
11.97513348164412
 21
3.478365350241005
 31
0.0
  0
LINE
  5
DB
330
1F
100
AcDbEntity
  8
0
100
AcDbLine
 10
8.779660137004995
 20
3.585397030997236
 30
0.0
 11
8.779660137004995
 21
3.395400298667972
 31
0.0
  0
LINE
  5
DD
330
1F
100
AcDbEntity
  8
0
100
AcDbLine
 10
2.409461365178457
 20
6.595400298667973
 30
0.0
 11
3.756508152194871
 21
3.66703771819737
 31
0.0
  0
LINE
  5
DE
330
1F
100
AcDbEntity
  8
0
100
AcDbLine
 10
12.66936339590841
 20
3.667003945070431
 30
0.0
 11
14.01642571856322
 21
6.595400298667973
 31
0.0
  0
LINE
  5
DF
330
1F
100
AcDbEntity
  8
0
100
AcDbLine
 10
3.866628484724706
 20
3.660989000237477
 30
0.0
 11
7.838492374940857
 21
3.581551722433153
 31
0.0
  0
LINE
  5
E0
330
1F
100
AcDbEntity
  8
0
100
AcDbLine
 10
8.58739470880082
 20
3.581551722433153
 30
0.0
 11
12.55911250171362
 21
3.66098607829141
 31
0.0
  0
ARC
  5
E1
330
1F
100
AcDbEntity
  8
0
100
AcDbCircle
 10
8.212943541870837
 20
4.034906245499578
 30
0.0
 40
0.5880000000000006
100
AcDbArc
 50
286.8050184659898
 51
309.5552288032997
  0
ARC
  5
E2
330
1F
100
AcDbEntity
  8
0
100
AcDbCircle
 10
8.212943541870837
 20
4.034906245499578
 30
0.0
 40
0.5880000000000006
100
AcDbArc
 50
230.4447711967017
 51
253.1949815340119
  0
LINE
  5
E3
330
1F
100
AcDbEntity
  8
0
100
AcDbLine
 10
1.879610208537506
 20
6.595400298667973
 30
0.0
 11
1.879610208537506
 21
6.928733632001306
 31
0.0
  0
LINE
  5
E4
330
1F
100
AcDbEntity
  8
0
100
AcDbLine
 10
14.54627687520417
 20
6.595400298667971
 30
0.0
 11
1.879610208537506
 21
6.595400298667973
 31
0.0
  0
LINE
  5
E5
330
1F
100
AcDbEntity
  8
0
100
AcDbLine
 10
14.54627687520417
 20
6.595400298667971
 30
0.0
 11
14.54627687520417
 21
6.928733632001306
 31
0.0
  0
LINE
  5
E6
330
1F
100
AcDbEntity
  8
0
100
AcDbLine
 10
1.879610208537506
 20
6.928733632001306
 30
0.0
 11
14.54627687520417
 21
6.928733632001306
 31
0.0
  0
LWPOLYLINE
  5
E7
330
1F
100
AcDbEntity
  8
0
100
AcDbPolyline
 90
        4
 70
   128
 43
0.0
 10
13.65033139557632
 20
6.595400298667971
 10
13.36718086210385
 20
5.922506070397192
 10
13.01128996511185
 20
5.076690306389684
 10
12.41494621594963
 20
3.659251526354809
  0
LWPOLYLINE
  5
E8
330
1F
100
AcDbEntity
  8
0
100
AcDbPolyline
 90
       16
 70
   128
 43
0.0
 10
4.010940867792045
 20
3.659251526354809
 10
5.061927514565298
 20
3.638575616229502
 10
6.112921693908284
 20
3.618280982253762
 10
6.463263055765136
 20
3.611394661358689
 10
6.813611674304109
 20
3.60444907586187
 10
7.163969301232066
 20
3.598030804555512
 10
7.514337688255862
 20
3.592726426231817
 10
7.864718587082355
 20
3.589122519682992
 10
8.215113749418403
 20
3.587805663701243
 10
8.565129732519695
 20
3.589157152248315
 10
8.915131350798271
 20
3.592778966804201
 10
9.265120411422996
 20
3.598088645396571
 10
9.615098721562736
 20
3.60450372605309
 10
9.965068088386356
 20
3.611441746801434
 10
10.31503031906271
 20
3.618320245669269
 10
12.41494621594963
 20
3.659251526354809
  0
LWPOLYLINE
  5
E9
330
1F
100
AcDbEntity
  8
0
100
AcDbPolyline
 90
        4
 70
   128
 43
0.0
 10
4.010940867792045
 20
3.659251526354809
 10
3.655093466512407
 20
4.505085238880276
 10
3.299218576549668
 20
5.350907608495015
 10
2.775554050347925
 20
6.595400298667973
  0
ARC
  5
EA
330
1F
100
AcDbEntity
  8
0
100
AcDbCircle
 10
8.214044227423903
 20
6.559510567838749
 30
0.0
 40
0.1687631095368429
100
AcDbArc
 50
269.6263100149996
 51
12.27847809031125
  0
ARC
  5
EB
330
1F
100
AcDbEntity
  8
0
100
AcDbCircle
 10
8.211919884873946
 20
6.559573050375551
 30
0.0
 40
0.1688251061170263
100
AcDbArc
 50
167.7478015697007
 51
270.3474103249911
  0
LWPOLYLINE
  5
EC
330
1F
100
AcDbEntity
  8
0
100
AcDbPolyline
 90
       16
 70
   128
 43
0.0
 10
3.756638902322209
 20
3.667097863256016
 10
3.757539021792884
 20
3.66645444888112
 10
3.76083381616258
 20
3.665708769569374
 10
3.766333412269799
 20
3.664995592758527
 10
3.774034981817084
 20
3.664315984352043
 10
3.783935696506987
 20
3.663671010253382
 10
3.796306323568821
 20
3.663049425948027
 10
3.810964356411081
 20
3.662465590915049
 10
3.827902383265248
 20
3.661920462580413
 10
3.847112992362804
 20
3.661414998370083
 10
3.868588771935229
 20
3.660950155710027
 10
3.892541505932593
 20
3.660523101620025
 10
3.918826978103382
 20
3.660137778294158
 10
3.947371292861165
 20
3.659796119077769
 10
3.978100554619527
 20
3.659500057316205
 10
4.010940867792045
 20
3.659251526354809
  0
LWPOLYLINE
  5
ED
330
1F
100
AcDbEntity
  8
0
100
AcDbPolyline
 90
       17
 70
   128
 43
0.0
 10
12.41494621594963
 20
3.659251526354809
 10
12.44628866330046
 20
3.659487524563648
 10
12.47573787977271
 20
3.659767058131154
 10
12.50319162500157
 20
3.660087715805506
 10
12.52854765862224
 20
3.660447086334878
 10
12.55187231861697
 20
3.660845981956194
 10
12.57310500814909
 20
3.661283354129078
 10
12.59223773994835
 20
3.661758432414463
 10
12.6092625267445
 20
3.662270446373287
 10
12.62412275889983
 20
3.662816551456751
 10
12.63688631213063
 20
3.663397866841846
 10
12.64754825840323
 20
3.664013468927114
 10
12.65610366968398
 20
3.664662434111095
 10
12.66257179853944
 20
3.665346805466568
 10
12.66691320152562
 20
3.666063170219545
 10
12.66912597448439
 20
3.666810499259693
 10
12.66915651127893
 20
3.667099111999945
  0
ARC
  5
EE
330
1F
100
AcDbEntity
  8
0
100
AcDbCircle
 10
8.212943541870838
 20
6.563396098097048
 30
0.0
 40
0.1700166317207236
100
AcDbArc
 50
180.9463564431763
 51
359.0536435568253
  0
LINE
  5
EF
330
1F
100
AcDbEntity
  8
0
100
AcDbLine
 10
8.587394708800804
 20
3.581551722433153
 30
0.0
 11
7.83849237494087
 21
3.581551722433153
 31
0.0
  0
LINE
  5
F0
330
1F
100
AcDbEntity
  8
0
100
AcDbLine
 10
8.21294354187084
 20
3.472017268879854
 30
0.0
 11
8.042943541870837
 21
3.472017268879854
 31
0.0
  0
LINE
  5
F1
330
1F
100
AcDbEntity
  8
0
100
AcDbLine
 10
8.382943541870838
 20
3.472017268879854
 30
0.0
 11
8.21294354187084
 21
3.472017268879854
 31
0.0
  0
POINT
  5
12C
330
1F
100
AcDbEntity
  8
0
100
AcDbPoint
 10
2.311728767132666
 20
14.58038185858292
 30
0.0
  0
POINT
  5
12D
330
1F
100
AcDbEntity
  8
0
100
AcDbPoint
 10
3.770245800045791
 20
14.58038185858292
 30
0.0
  0
POINT
  5
12E
330
1F
100
AcDbEntity
  8
0
100
AcDbPoint
 10
12.65564127266236
 20
14.58038185858292
 30
0.0
  0
POINT
  5
12F
330
1F
100
AcDbEntity
  8
0
100
AcDbPoint
 10
14.11415835613617
 20
14.58038185858292
 30
0.0
  0
LINE
  5
130
330
1F
100
AcDbEntity
  8
0
100
AcDbLine
 10
14.50514038540118
 20
17.03437278167235
 30
0.0
 11
14.50514038540118
 21
12.10128072059376
 31
0.0
  0
LINE
  5
131
330
1F
100
AcDbEntity
  8
0
100
AcDbLine
 10
13.71372535150678
 20
12.1208174158717
 30
0.0
 11
14.50514038540118
 21
12.10128072059376
 31
0.0
  0
ARC
  5
132
330
1F
100
AcDbEntity
  8
0
100
AcDbCircle
 10
6.433219230149973
 20
14.56782675113305
 30
0.0
 40
7.680730698961544
100
AcDbArc
 50
341.4222824834831
 51
18.57771751651764
  0
LINE
  5
133
330
1F
100
AcDbEntity
  8
0
100
AcDbLine
 10
13.71372535150679
 20
17.0148360863944
 30
0.0
 11
14.50514038540118
 21
17.03437278167235
 31
0.0
  0
LINE
  5
134
330
1F
100
AcDbEntity
  8
0
100
AcDbLine
 10
1.920746698340488
 20
12.10128072059376
 30
0.0
 11
1.920746698340488
 21
17.03437278167234
 31
0.0
  0
LINE
  5
135
330
1F
100
AcDbEntity
  8
0
100
AcDbLine
 10
1.920746698340488
 20
17.03437278167234
 30
0.0
 11
2.712161732234881
 21
17.0148360863944
 31
0.0
  0
ARC
  5
136
330
1F
100
AcDbEntity
  8
0
100
AcDbCircle
 10
9.992667853591653
 20
14.56782675113305
 30
0.0
 40
7.680730698961497
100
AcDbArc
 50
161.4222824834822
 51
198.5777175165186
  0
LINE
  5
137
330
1F
100
AcDbEntity
  8
0
100
AcDbLine
 10
1.920746698340488
 20
12.10128072059376
 30
0.0
 11
2.712161732234886
 21
12.1208174158717
 31
0.0
  0
LINE
  5
138
330
1F
100
AcDbEntity
  8
0
100
AcDbLine
 10
14.50514038540118
 20
17.03437278167235
 30
0.0
 11
14.35247382679293
 21
17.0339250744786
 31
0.0
  0
LINE
  5
139
330
1F
100
AcDbEntity
  8
0
100
AcDbLine
 10
14.54627687520417
 20
11.43449341779972
 30
0.0
 11
14.54627687520417
 21
17.43449341779972
 31
0.0
  0
LINE
  5
13A
330
1F
100
AcDbEntity
  8
0
100
AcDbLine
 10
14.2217689646162
 20
12.10211173050675
 30
0.0
 11
14.50514038540118
 21
12.10128072059376
 31
0.0
  0
LINE
  5
13B
330
1F
100
AcDbEntity
  8
0
100
AcDbLine
 10
2.073413256948728
 20
17.0339250744786
 30
0.0
 11
1.920746698340488
 21
17.03437278167234
 31
0.0
  0
LINE
  5
13C
330
1F
100
AcDbEntity
  8
0
100
AcDbLine
 10
1.920746698340488
 20
12.10128072059376
 30
0.0
 11
2.204118119125476
 21
12.10211173050675
 31
0.0
  0
LINE
  5
13D
330
1F
100
AcDbEntity
  8
0
100
AcDbLine
 10
1.879610208537507
 20
17.43449341779972
 30
0.0
 11
1.879610208537506
 21
11.43449341779972
 31
0.0
  0
ARC
  5
13E
330
1F
100
AcDbEntity
  8
0
100
AcDbCircle
 10
2.602817874692762
 20
239.3995650741109
 30
0.0
 40
222.3662701978323
100
AcDbArc
 50
269.8635913671658
 51
270.025520660758
  0
ARC
  5
13F
330
1F
100
AcDbEntity
  8
0
100
AcDbCircle
 10
13.81312426060022
 20
249.6766780579759
 30
0.0
 40
232.6433781857869
100
AcDbArc
 50
269.978055981869
 51
270.1328319840801
  0
LINE
  5
140
330
1F
100
AcDbEntity
  8
0
100
AcDbLine
 10
13.72402292678196
 20
17.03331693488823
 30
0.0
 11
2.701864156959767
 21
17.03331693488823
 31
0.0
  0
LINE
  5
141
330
1F
100
AcDbEntity
  8
0
100
AcDbLine
 10
14.54627687520417
 20
17.43449341779972
 30
0.0
 11
1.879610208537507
 21
17.43449341779972
 31
0.0
  0
ARC
  5
142
330
1F
100
AcDbEntity
  8
0
100
AcDbCircle
 10
13.35598837502938
 20
-347.4176734215652
 30
0.0
 40
359.520827618959
100
AcDbArc
 50
89.86202295415898
 51
90.02466325245356
  0
ARC
  5
143
330
1F
100
AcDbEntity
  8
0
100
AcDbCircle
 10
3.075546115363442
 20
-353.1287582188938
 30
0.0
 40
365.2319095461794
100
AcDbArc
 50
89.97660834087191
 51
90.13670545317049
  0
LINE
  5
144
330
1F
100
AcDbEntity
  8
0
100
AcDbLine
 10
3.22465622723457
 20
12.10312088931887
 30
0.0
 11
13.20123085650711
 21
12.10312088931887
 31
0.0
  0
LINE
  5
145
330
1F
100
AcDbEntity
  8
0
100
AcDbLine
 10
1.879610208537506
 20
11.43449341779972
 30
0.0
 11
14.54627687520417
 21
11.43449341779972
 31
0.0
  0
LINE
  5
146
330
1F
100
AcDbEntity
  8
0
100
AcDbLine
 10
13.71372535150679
 20
17.0148360863944
 30
0.0
 11
12.41462634307722
 21
16.5828702748213
 31
0.0
  0
LWPOLYLINE
  5
147
330
1F
100
AcDbEntity
  8
0
100
AcDbPolyline
 90
       13
 70
   128
 43
0.0
 10
12.41462634307722
 20
16.5828702748213
 10
11.57487701414547
 20
16.58110415295895
 10
10.73510538480448
 20
16.57955212817467
 10
9.895309174372004
 20
16.57830767435411
 10
9.265386010196545
 20
16.57765017503242
 10
8.635446932318966
 20
16.57727976235024
 10
8.005503241430728
 20
16.57721545963185
 10
7.375566238223282
 20
16.5774762902015
 10
6.814830153633252
 20
16.57797422410191
 10
6.254104355992756
 20
16.5786785255682
 10
5.693391460888639
 20
16.57955255585918
 10
4.852315377697467
 20
16.58110521411321
 10
4.011260740664459
 20
16.58287027482129
  0
LINE
  5
148
330
1F
100
AcDbEntity
  8
0
100
AcDbLine
 10
2.712161732234881
 20
17.0148360863944
 30
0.0
 11
4.011260740664459
 21
16.58287027482129
 31
0.0
  0
LINE
  5
149
330
1F
100
AcDbEntity
  8
0
100
AcDbLine
 10
4.020741869047409
 20
12.55593581496125
 30
0.0
 11
2.712161732234886
 21
12.1208174158717
 31
0.0
  0
LWPOLYLINE
  5
14A
330
1F
100
AcDbEntity
  8
0
100
AcDbPolyline
 90
       15
 70
   128
 43
0.0
 10
4.020741869047409
 20
12.55593581496125
 10
6.117802867127652
 20
12.56166527994053
 10
6.467323742729827
 20
12.56263108386762
 10
6.816851622001609
 20
12.56360773520257
 10
7.166388395986045
 20
12.5645118348953
 10
7.515935955726179
 20
12.56525998389572
 10
7.865496192265066
 20
12.56576878315373
 10
8.215070996645746
 20
12.56595483361926
 10
8.564274087460692
 20
12.56576392078908
 10
8.913462509930724
 20
12.56525262951098
 10
9.262638210128081
 20
12.56450376972368
 10
9.61180313412499
 20
12.56360015136588
 10
9.960959227993686
 20
12.56262458437626
 10
10.3101084378064
 20
12.56165987869355
 10
12.40514521469426
 20
12.55593581496125
  0
LINE
  5
14B
330
1F
100
AcDbEntity
  8
0
100
AcDbLine
 10
13.71372535150678
 20
12.1208174158717
 30
0.0
 11
12.40514521469426
 21
12.55593581496125
 31
0.0
  0
LWPOLYLINE
  5
14C
330
1F
100
AcDbEntity
  8
0
100
AcDbPolyline
 90
       95
 70
   128
 43
0.0
 10
8.21294354187084
 20
12.12892328422887
 10
8.22429828960751
 20
12.128975919198
 10
8.235602324284382
 20
12.12913358902485
 10
8.246805159338492
 20
12.12939558951769
 10
8.257856760188959
 20
12.12976075051872
 10
8.268707767703567
 20
12.13022744113027
 10
8.279309718648635
 20
12.13079357699877
 10
8.289615262137576
 20
12.131456629624
 10
8.299578371111465
 20
12.13221363765199
 10
8.309154547907041
 20
12.1330612201011
 10
8.318301022994081
 20
12.13399559146238
 10
8.326976945994507
 20
12.13501257860649
 10
8.335143568130087
 20
12.13610763942198
 10
8.342764415283886
 20
12.13727588310142
 10
8.349805450902525
 20
12.13851209198492
 10
8.356235228011694
 20
12.13981074486354
 10
8.362025029665973
 20
12.14116604163826
 10
8.367148997205678
 20
12.14257192922467
 10
8.371584245747913
 20
12.14402212858754
 10
8.375310966396016
 20
12.14551016278446
 10
8.378312514710897
 20
12.1470293858935
 10
8.380575485049144
 20
12.14857301269544
 10
8.382089770435886
 20
12.15013414897827
 10
8.382848607704982
 20
12.15170582232838
 10
8.382848607704982
 20
12.15328101327106
 10
8.382089770435886
 20
12.15485268662116
 10
8.380575485049144
 20
12.156413822904
 10
8.378312514710897
 20
12.15795744970594
 10
8.375310966396016
 20
12.15947667281497
 10
8.371584245747913
 20
12.1609647070119
 10
8.367148997205678
 20
12.16241490637477
 10
8.362025029665973
 20
12.16382079396118
 10
8.356235228011694
 20
12.1651760907359
 10
8.349805450902525
 20
12.16647474361451
 10
8.342764415283886
 20
12.16771095249802
 10
8.335143568130085
 20
12.16887919617746
 10
8.326976945994507
 20
12.16997425699294
 10
8.318301022994081
 20
12.17099124413706
 10
8.309154547907041
 20
12.17192561549833
 10
8.299578371111465
 20
12.17277319794745
 10
8.289615262137576
 20
12.17353020597544
 10
8.279309718648633
 20
12.17419325860067
 10
8.268707767703563
 20
12.17475939446917
 10
8.257856760188957
 20
12.17522608508072
 10
8.246805159338491
 20
12.17559124608175
 10
8.23560232428438
 20
12.17585324657459
 10
8.224298289607508
 20
12.17601091640144
 10
8.212943541870838
 20
12.17606355137057
 10
8.201588794134167
 20
12.17601091640144
 10
8.190284759457295
 20
12.17585324657459
 10
8.179081924403186
 20
12.17559124608175
 10
8.16803032355272
 20
12.17522608508072
 10
8.157179316038112
 20
12.17475939446917
 10
8.146577365093044
 20
12.17419325860067
 10
8.136271821604101
 20
12.17353020597544
 10
8.126308712630212
 20
12.17277319794745
 10
8.116732535834636
 20
12.17192561549833
 10
8.107586060747596
 20
12.17099124413706
 10
8.09891013774717
 20
12.16997425699294
 10
8.09074351561159
 20
12.16887919617745
 10
8.083122668457793
 20
12.16771095249802
 10
8.076081632839153
 20
12.16647474361451
 10
8.069651855729983
 20
12.1651760907359
 10
8.063862054075704
 20
12.16382079396118
 10
8.058738086536001
 20
12.16241490637477
 10
8.054302837993766
 20
12.1609647070119
 10
8.050576117345663
 20
12.15947667281497
 10
8.047574569030782
 20
12.15795744970594
 10
8.045311598692535
 20
12.15641382290399
 10
8.043797313305793
 20
12.15485268662116
 10
8.043038476036695
 20
12.15328101327106
 10
8.043038476036697
 20
12.15170582232838
 10
8.043797313305795
 20
12.15013414897827
 10
8.045311598692535
 20
12.14857301269544
 10
8.047574569030784
 20
12.1470293858935
 10
8.050576117345665
 20
12.14551016278446
 10
8.054302837993768
 20
12.14402212858754
 10
8.058738086536003
 20
12.14257192922467
 10
8.063862054075705
 20
12.14116604163826
 10
8.069651855729985
 20
12.13981074486354
 10
8.076081632839155
 20
12.13851209198492
 10
8.083122668457793
 20
12.13727588310142
 10
8.090743515611594
 20
12.13610763942198
 10
8.098910137747171
 20
12.13501257860649
 10
8.1075860607476
 20
12.13399559146238
 10
8.116732535834641
 20
12.1330612201011
 10
8.126308712630214
 20
12.13221363765199
 10
8.136271821604104
 20
12.131456629624
 10
8.146577365093047
 20
12.13079357699877
 10
8.157179316038115
 20
12.13022744113027
 10
8.168030323552724
 20
12.12976075051872
 10
8.17908192440319
 20
12.12939558951769
 10
8.190284759457298
 20
12.12913358902485
 10
8.20158879413417
 20
12.128975919198
 10
8.21294354187084
 20
12.12892328422887
  0
ARC
  5
14D
330
1F
100
AcDbEntity
  8
0
100
AcDbCircle
 10
12.14166139193726
 20
14.58853432881202
 30
0.0
 40
8.371427035802319
100
AcDbArc
 50
166.2178262577251
 51
194.0519708512264
  0
ARC
  5
14E
330
1F
100
AcDbEntity
  8
0
100
AcDbCircle
 10
4.284590179022816
 20
14.58853347065302
 30
0.0
 40
8.371073247636326
100
AcDbArc
 50
345.9474291211155
 51
13.78277376993421
  0
ARC
  5
14F
330
1F
100
AcDbEntity
  8
0
100
AcDbCircle
 10
8.232186916297818
 20
11.48544992559439
 30
0.0
 40
0.6697628389607015
100
AcDbArc
 50
78.57002067615249
 51
91.64642740099454
  0
ARC
  5
150
330
1F
100
AcDbEntity
  8
0
100
AcDbCircle
 10
8.194578713962178
 20
11.47518481109015
 30
0.0
 40
0.6799994854796366
100
AcDbArc
 50
88.45241782066171
 51
101.3311341021948
  0
CIRCLE
  5
151
330
1F
100
AcDbEntity
  8
0
100
AcDbCircle
 10
8.212943541870837
 20
13.23449341779973
 30
0.0
 40
0.3665179007108019
  0
CIRCLE
  5
152
330
1F
100
AcDbEntity
  8
0
100
AcDbCircle
 10
8.21294354187084
 20
13.23449341779973
 30
0.0
 40
0.1699999999999981
  0
ENDSEC
  0
SECTION
  2
OBJECTS
  0
DICTIONARY
  5
C
330
0
100
AcDbDictionary
  3
ACAD_GROUP
350
D
  3
ACAD_LAYOUT
350
1A
  3
ACAD_MLINESTYLE
350
17
  3
ACAD_PLOTSETTINGS
350
19
  3
ACAD_PLOTSTYLENAME
350
E
  3
ACDBHEADERROUNDTRIPXREC
350
2C5
  3
ACDBVARIABLEDICTIONARY
350
2C2
  0
DICTIONARY
  5
2E8
330
1F
100
AcDbDictionary
280
     1
  3
ACAD_LAYOUTSELFREF
360
2E9
  0
DICTIONARY
  5
2E6
330
1B
100
AcDbDictionary
280
     1
  3
ACAD_LAYOUTSELFREF
360
2E7
  0
DICTIONARY
  5
D
102
{ACAD_REACTORS
330
C
102
}
330
C
100
AcDbDictionary
  0
DICTIONARY
  5
1A
102
{ACAD_REACTORS
330
C
102
}
330
C
100
AcDbDictionary
  0
DICTIONARY
  5
17
102
{ACAD_REACTORS
330
C
102
}
330
C
100
AcDbDictionary
  3
STANDARD
350
18
  0
DICTIONARY
  5
19
102
{ACAD_REACTORS
330
C
102
}
330
C
100
AcDbDictionary
  0
ACDBDICTIONARYWDFLT
  5
E
102
{ACAD_REACTORS
330
C
102
}
330
C
100
AcDbDictionary
281
     1
  3
Normal
350
F
100
AcDbDictionaryWithDefault
340
F
  0
DICTIONARY
  5
2C5
102
{ACAD_REACTORS
330
C
102
}
330
C
100
AcDbDictionary
  3
CEPSNTYPE
350
2CF
  3
DIMSTYLEDATA
350
2D3
  3
FINGERPRINTGUID
350
2D0
  3
HYPERLINKBASE
350
2C8
  3
INSUNITS
350
2CE
  3
LAYOUTDICT
350
2CA
  3
LWETCUNION
350
2CD
  3
PLOTSETDICT
350
2CB
  3
PLOTSTYLNAMDICT
350
2CC
  3
PSVPSCALE
350
2D2
  3
PUCSBASE
350
2D6
  3
PUCSORGBACK
350
2DC
  3
PUCSORGBOTTOM
350
2D8
  3
PUCSORGFRONT
350
2DB
  3
PUCSORGLEFT
350
2D9
  3
PUCSORGRIGHT
350
2DA
  3
PUCSORGTOP
350
2D7
  3
PUCSORTHOREF
350
2D4
  3
PUCSORTHOVIEW
350
2D5
  3
STYLESHEET
350
2C9
  3
TSTACKALIGN
350
2C6
  3
TSTACKSIZE
350
2C7
  3
UCSBASE
350
2DF
  3
UCSORGBACK
350
2E5
  3
UCSORGBOTTOM
350
2E1
  3
UCSORGFRONT
350
2E4
  3
UCSORGLEFT
350
2E2
  3
UCSORGRIGHT
350
2E3
  3
UCSORGTOP
350
2E0
  3
UCSORTHOREF
350
2DD
  3
UCSORTHOVIEW
350
2DE
  3
VERSIONGUID
350
2D1
  0
DICTIONARY
  5
2C2
102
{ACAD_REACTORS
330
C
102
}
330
C
100
AcDbDictionary
  3
DIMASSOC
350
2C3
  0
XRECORD
  5
2E9
102
{ACAD_REACTORS
330
2E8
102
}
330
2E8
100
AcDbXrecord
340
1F
  0
XRECORD
  5
2E7
102
{ACAD_REACTORS
330
2E6
102
}
330
2E6
100
AcDbXrecord
340
1B
  0
MLINESTYLE
  5
18
102
{ACAD_REACTORS
330
17
102
}
330
17
100
AcDbMlineStyle
  2
STANDARD
 70
     0
  3

 62
   256
 51
90.0
 52
90.0
 71
     2
 49
0.5
 62
   256
  6
BYLAYER
 49
-0.5
 62
   256
  6
BYLAYER
  0
ACDBPLACEHOLDER
  5
F
102
{ACAD_REACTORS
330
E
102
}
330
E
100
AcDbPlaceHolder
280
     0
  0
XRECORD
  5
2CF
102
{ACAD_REACTORS
330
2C5
102
}
330
2C5
100
AcDbXrecord
 90
        0
  0
XRECORD
  5
2D3
102
{ACAD_REACTORS
330
2C5
102
}
330
2C5
100
AcDbXrecord
1000
DSTYLE
1002
{
1070
   278
 70
    44
1002
}
  0
XRECORD
  5
2D0
102
{ACAD_REACTORS
330
2C5
102
}
330
2C5
100
AcDbXrecord
  1
{F41DE9D6-B84F-4DE4-8640-11103767D086}
  0
XRECORD
  5
2C8
102
{ACAD_REACTORS
330
2C5
102
}
330
2C5
100
AcDbXrecord
  1

  0
XRECORD
  5
2CE
102
{ACAD_REACTORS
330
2C5
102
}
330
2C5
100
AcDbXrecord
 90
        4
  0
XRECORD
  5
2CA
102
{ACAD_REACTORS
330
2C5
102
}
330
2C5
100
AcDbXrecord
340
1A
  0
XRECORD
  5
2CD
102
{ACAD_REACTORS
330
2C5
102
}
330
2C5
100
AcDbXrecord
 90
    10781
  0
XRECORD
  5
2CB
102
{ACAD_REACTORS
330
2C5
102
}
330
2C5
100
AcDbXrecord
340
19
  0
XRECORD
  5
2CC
102
{ACAD_REACTORS
330
2C5
102
}
330
2C5
100
AcDbXrecord
340
E
  0
XRECORD
  5
2D2
102
{ACAD_REACTORS
330
2C5
102
}
330
2C5
100
AcDbXrecord
 40
0.0
  0
XRECORD
  5
2D6
102
{ACAD_REACTORS
330
2C5
102
}
330
2C5
100
AcDbXrecord
340
0
  0
XRECORD
  5
2DC
102
{ACAD_REACTORS
330
2C5
102
}
330
2C5
100
AcDbXrecord
 10
0.0
 20
0.0
 30
0.0
  0
XRECORD
  5
2D8
102
{ACAD_REACTORS
330
2C5
102
}
330
2C5
100
AcDbXrecord
 10
0.0
 20
0.0
 30
0.0
  0
XRECORD
  5
2DB
102
{ACAD_REACTORS
330
2C5
102
}
330
2C5
100
AcDbXrecord
 10
0.0
 20
0.0
 30
0.0
  0
XRECORD
  5
2D9
102
{ACAD_REACTORS
330
2C5
102
}
330
2C5
100
AcDbXrecord
 10
0.0
 20
0.0
 30
0.0
  0
XRECORD
  5
2DA
102
{ACAD_REACTORS
330
2C5
102
}
330
2C5
100
AcDbXrecord
 10
0.0
 20
0.0
 30
0.0
  0
XRECORD
  5
2D7
102
{ACAD_REACTORS
330
2C5
102
}
330
2C5
100
AcDbXrecord
 10
0.0
 20
0.0
 30
0.0
  0
XRECORD
  5
2D4
102
{ACAD_REACTORS
330
2C5
102
}
330
2C5
100
AcDbXrecord
340
0
  0
XRECORD
  5
2D5
102
{ACAD_REACTORS
330
2C5
102
}
330
2C5
100
AcDbXrecord
 70
     0
  0
XRECORD
  5
2C9
102
{ACAD_REACTORS
330
2C5
102
}
330
2C5
100
AcDbXrecord
  1

  0
XRECORD
  5
2C6
102
{ACAD_REACTORS
330
2C5
102
}
330
2C5
100
AcDbXrecord
 90
        1
  0
XRECORD
  5
2C7
102
{ACAD_REACTORS
330
2C5
102
}
330
2C5
100
AcDbXrecord
 90
       70
  0
XRECORD
  5
2DF
102
{ACAD_REACTORS
330
2C5
102
}
330
2C5
100
AcDbXrecord
340
0
  0
XRECORD
  5
2E5
102
{ACAD_REACTORS
330
2C5
102
}
330
2C5
100
AcDbXrecord
 10
0.0
 20
0.0
 30
0.0
  0
XRECORD
  5
2E1
102
{ACAD_REACTORS
330
2C5
102
}
330
2C5
100
AcDbXrecord
 10
0.0
 20
0.0
 30
0.0
  0
XRECORD
  5
2E4
102
{ACAD_REACTORS
330
2C5
102
}
330
2C5
100
AcDbXrecord
 10
0.0
 20
0.0
 30
0.0
  0
XRECORD
  5
2E2
102
{ACAD_REACTORS
330
2C5
102
}
330
2C5
100
AcDbXrecord
 10
0.0
 20
0.0
 30
0.0
  0
XRECORD
  5
2E3
102
{ACAD_REACTORS
330
2C5
102
}
330
2C5
100
AcDbXrecord
 10
0.0
 20
0.0
 30
0.0
  0
XRECORD
  5
2E0
102
{ACAD_REACTORS
330
2C5
102
}
330
2C5
100
AcDbXrecord
 10
0.0
 20
0.0
 30
0.0
  0
XRECORD
  5
2DD
102
{ACAD_REACTORS
330
2C5
102
}
330
2C5
100
AcDbXrecord
340
0
  0
XRECORD
  5
2DE
102
{ACAD_REACTORS
330
2C5
102
}
330
2C5
100
AcDbXrecord
 70
     0
  0
XRECORD
  5
2D1
102
{ACAD_REACTORS
330
2C5
102
}
330
2C5
100
AcDbXrecord
  1
{ABCEF3AF-504A-49AF-B504-E5EECB053494}
  0
DICTIONARYVAR
  5
2C3
102
{ACAD_REACTORS
330
2C2
102
}
330
2C2
100
DictionaryVariables
280
     0
  1
1
  0
ENDSEC
  0
EOF
