  0
SECTION
  2
HEADER
  9
$ACADVER
  1
AC1014
  9
$ACADMAINTVER
 70
     9
  9
$DWGCODEPAGE
  3
ANSI_1250
  9
$INSBASE
 10
0.0
 20
0.0
 30
0.0
  9
$EXTMIN
 10
2.161565563175453
 20
1.230133127259974
 30
0.0
  9
$EXTMAX
 10
16.30370054750976
 20
18.84787770135307
 30
0.0
  9
$LIMMIN
 10
0.0
 20
0.0
  9
$LIMMAX
 10
0.0
 20
0.0
  9
$ORTHOMODE
 70
     0
  9
$REGENMODE
 70
     1
  9
$FILLMODE
 70
     1
  9
$QTEXTMODE
 70
     0
  9
$MIRRTEXT
 70
     1
  9
$DRAGMODE
 70
     2
  9
$LTSCALE
 40
1.0
  9
$OSMODE
 70
  3007
  9
$ATTMODE
 70
     1
  9
$TEXTSIZE
 40
2.5
  9
$TRACEWID
 40
1.0
  9
$TEXTSTYLE
  7
STANDARD
  9
$CLAYER
  8
0
  9
$CELTYPE
  6
BYLAYER
  9
$CECOLOR
 62
   256
  9
$CELTSCALE
 40
1.0
  9
$DELOBJ
 70
     1
  9
$DISPSILH
 70
     0
  9
$DIMSCALE
 40
1.0
  9
$DIMASZ
 40
0.3
  9
$DIMEXO
 40
0.1
  9
$DIMDLI
 40
3.75
  9
$DIMRND
 40
0.0
  9
$DIMDLE
 40
0.0
  9
$DIMEXE
 40
0.1
  9
$DIMTP
 40
0.0
  9
$DIMTM
 40
0.0
  9
$DIMTXT
 40
0.2822222222222222
  9
$DIMCEN
 40
2.5
  9
$DIMTSZ
 40
0.0
  9
$DIMTOL
 70
     0
  9
$DIMLIM
 70
     0
  9
$DIMTIH
 70
     1
  9
$DIMTOH
 70
     1
  9
$DIMSE1
 70
     0
  9
$DIMSE2
 70
     0
  9
$DIMTAD
 70
     1
  9
$DIMZIN
 70
     0
  9
$DIMBLK
  1

  9
$DIMASO
 70
     1
  9
$DIMSHO
 70
     1
  9
$DIMPOST
  1

  9
$DIMAPOST
  1

  9
$DIMALT
 70
     0
  9
$DIMALTD
 70
     3
  9
$DIMALTF
 40
0.3937007874015748
  9
$DIMLFAC
 40
15.0
  9
$DIMTOFL
 70
     1
  9
$DIMTVP
 40
0.0
  9
$DIMTIX
 70
     0
  9
$DIMSOXD
 70
     0
  9
$DIMSAH
 70
     0
  9
$DIMBLK1
  1

  9
$DIMBLK2
  1

  9
$DIMSTYLE
  2
ISO-25
  9
$DIMCLRD
 70
     0
  9
$DIMCLRE
 70
     0
  9
$DIMCLRT
 70
     0
  9
$DIMTFAC
 40
1.0
  9
$DIMGAP
 40
0.1524
  9
$DIMJUST
 70
     0
  9
$DIMSD1
 70
     0
  9
$DIMSD2
 70
     0
  9
$DIMTOLJ
 70
     0
  9
$DIMTZIN
 70
     0
  9
$DIMALTZ
 70
     0
  9
$DIMALTTZ
 70
     0
  9
$DIMFIT
 70
     3
  9
$DIMUPT
 70
     0
  9
$DIMUNIT
 70
     2
  9
$DIMDEC
 70
     2
  9
$DIMTDEC
 70
     2
  9
$DIMALTU
 70
     2
  9
$DIMALTTD
 70
     3
  9
$DIMTXSTY
  7
STANDARD
  9
$DIMAUNIT
 70
     0
  9
$LUNITS
 70
     2
  9
$LUPREC
 70
     1
  9
$SKETCHINC
 40
1.0
  9
$FILLETRAD
 40
10.0
  9
$AUNITS
 70
     0
  9
$AUPREC
 70
     0
  9
$MENU
  1
.
  9
$ELEVATION
 40
0.0
  9
$PELEVATION
 40
0.0
  9
$THICKNESS
 40
0.0
  9
$LIMCHECK
 70
     0
  9
$BLIPMODE
 70
     0
  9
$CHAMFERA
 40
10.0
  9
$CHAMFERB
 40
10.0
  9
$CHAMFERC
 40
20.0
  9
$CHAMFERD
 40
0.0
  9
$SKPOLY
 70
     0
  9
$TDCREATE
 40
2453964.679040428
  9
$TDUPDATE
 40
2453966.364909756
  9
$TDINDWG
 40
0.0055309838
  9
$TDUSRTIMER
 40
0.0055309838
  9
$USRTIMER
 70
     1
  9
$ANGBASE
 50
0.0
  9
$ANGDIR
 70
     0
  9
$PDMODE
 70
     0
  9
$PDSIZE
 40
-1.0
  9
$PLINEWID
 40
0.0
  9
$COORDS
 70
     2
  9
$SPLFRAME
 70
     0
  9
$SPLINETYPE
 70
     6
  9
$SPLINESEGS
 70
     8
  9
$ATTDIA
 70
     0
  9
$ATTREQ
 70
     1
  9
$HANDLING
 70
 22529
  9
$HANDSEED
  5
17E
  9
$SURFTAB1
 70
     6
  9
$SURFTAB2
 70
     6
  9
$SURFTYPE
 70
     6
  9
$SURFU
 70
     6
  9
$SURFV
 70
     6
  9
$UCSNAME
  2

  9
$UCSORG
 10
0.0
 20
0.0
 30
0.0
  9
$UCSXDIR
 10
1.0
 20
0.0
 30
0.0
  9
$UCSYDIR
 10
0.0
 20
1.0
 30
0.0
  9
$PUCSNAME
  2

  9
$PUCSORG
 10
0.0
 20
0.0
 30
0.0
  9
$PUCSXDIR
 10
1.0
 20
0.0
 30
0.0
  9
$PUCSYDIR
 10
0.0
 20
1.0
 30
0.0
  9
$USERI1
 70
     0
  9
$USERI2
 70
     0
  9
$USERI3
 70
     0
  9
$USERI4
 70
     0
  9
$USERI5
 70
     0
  9
$USERR1
 40
0.0
  9
$USERR2
 40
0.0
  9
$USERR3
 40
0.0
  9
$USERR4
 40
0.0
  9
$USERR5
 40
0.0
  9
$WORLDVIEW
 70
     1
  9
$SHADEDGE
 70
     3
  9
$SHADEDIF
 70
    70
  9
$TILEMODE
 70
     1
  9
$MAXACTVP
 70
    48
  9
$PINSBASE
 10
0.0
 20
0.0
 30
0.0
  9
$PLIMCHECK
 70
     0
  9
$PEXTMIN
 10
1.000000000000000E+20
 20
1.000000000000000E+20
 30
1.000000000000000E+20
  9
$PEXTMAX
 10
-1.000000000000000E+20
 20
-1.000000000000000E+20
 30
-1.000000000000000E+20
  9
$PLIMMIN
 10
0.0
 20
0.0
  9
$PLIMMAX
 10
420.0
 20
297.0
  9
$UNITMODE
 70
     0
  9
$VISRETAIN
 70
     1
  9
$PLINEGEN
 70
     0
  9
$PSLTSCALE
 70
     1
  9
$TREEDEPTH
 70
  3020
  9
$PICKSTYLE
 70
     1
  9
$CMLSTYLE
  2
STANDARD
  9
$CMLJUST
 70
     0
  9
$CMLSCALE
 40
20.0
  9
$PROXYGRAPHICS
 70
     1
  9
$MEASUREMENT
 70
     1
  0
ENDSEC
  0
SECTION
  2
CLASSES
  0
CLASS
  1
ACDBDICTIONARYWDFLT
  2
AcDbDictionaryWithDefault
  3
AutoCAD 2000
 90
        0
280
     0
281
     0
  0
CLASS
  1
ACDBPLACEHOLDER
  2
AcDbPlaceHolder
  3
AutoCAD 2000
 90
        0
280
     0
281
     0
  0
CLASS
  1
LAYOUT
  2
AcDbLayout
  3
AutoCAD 2000
 90
        0
280
     0
281
     0
  0
CLASS
  1
DICTIONARYVAR
  2
AcDbDictionaryVar
  3
AutoCAD 2000
 90
        0
280
     0
281
     0
  0
CLASS
  1
LONG_TRANSACTION
  2
AcDbLongTransaction
  3
AutoCAD 2000
 90
        0
280
     0
281
     0
  0
CLASS
  1
LWPOLYLINE
  2
AcDbPolyline
  3
AutoCAD 2000
 90
        0
280
     0
281
     1
  0
CLASS
  1
HATCH
  2
AcDbHatch
  3
AutoCAD 2000
 90
        0
280
     0
281
     1
  0
CLASS
  1
XRECORD
  2
AcDbXrecord
  3
AutoCAD 2000
 90
        0
280
     0
281
     0
  0
CLASS
  1
LONG_TRANSACTION
  2
AcDbLongTransaction
  3
AutoCAD 2000
 90
        0
280
     0
281
     0
  0
CLASS
  1
LWPOLYLINE
  2
AcDbPolyline
  3
AutoCAD 2000
 90
        0
280
     0
281
     1
  0
CLASS
  1
HATCH
  2
AcDbHatch
  3
AutoCAD 2000
 90
        0
280
     0
281
     1
  0
CLASS
  1
XRECORD
  2
AcDbXrecord
  3
AutoCAD 2000
 90
        0
280
     0
281
     0
  0
ENDSEC
  0
SECTION
  2
TABLES
  0
TABLE
  2
VPORT
  5
8
330
0
100
AcDbSymbolTable
 70
     2
  0
VPORT
  5
159
330
8
100
AcDbSymbolTableRecord
100
AcDbViewportTableRecord
  2
*ACTIVE
 70
     0
 10
0.0
 20
0.0
 11
1.0
 21
1.0
 12
9.23273168998158
 22
10.03891301117711
 13
0.0
 23
0.0
 14
10.0
 24
10.0
 15
10.0
 25
10.0
 16
0.0
 26
0.0
 36
1.0
 17
0.0
 27
0.0
 37
0.0
 40
17.78782726619473
 41
1.674961119751166
 42
50.0
 43
0.0
 44
0.0
 50
0.0
 51
0.0
 71
     0
 72
  2000
 73
     1
 74
     3
 75
     0
 76
     0
 77
     0
 78
     0
  0
ENDTAB
  0
TABLE
  2
LTYPE
  5
5
330
0
100
AcDbSymbolTable
 70
     1
  0
LTYPE
  5
14
330
5
100
AcDbSymbolTableRecord
100
AcDbLinetypeTableRecord
  2
BYBLOCK
 70
     0
  3

 72
    65
 73
     0
 40
0.0
  0
LTYPE
  5
15
330
5
100
AcDbSymbolTableRecord
100
AcDbLinetypeTableRecord
  2
BYLAYER
 70
     0
  3

 72
    65
 73
     0
 40
0.0
  0
LTYPE
  5
16
330
5
100
AcDbSymbolTableRecord
100
AcDbLinetypeTableRecord
  2
CONTINUOUS
 70
     0
  3
Solid line
 72
    65
 73
     0
 40
0.0
  0
ENDTAB
  0
TABLE
  2
LAYER
  5
2
330
0
100
AcDbSymbolTable
 70
     1
  0
LAYER
  5
10
330
2
100
AcDbSymbolTableRecord
100
AcDbLayerTableRecord
  2
0
 70
     0
 62
     7
  6
CONTINUOUS
  0
ENDTAB
  0
TABLE
  2
STYLE
  5
3
330
0
100
AcDbSymbolTable
 70
     1
  0
STYLE
  5
11
330
3
100
AcDbSymbolTableRecord
100
AcDbTextStyleTableRecord
  2
STANDARD
 70
     0
 40
0.0
 41
1.0
 50
0.0
 71
     0
 42
2.5
  3
ARIAL.TTF
  4

1001
ACAD
1000
Arial
1071
       34
  0
ENDTAB
  0
TABLE
  2
VIEW
  5
6
330
0
100
AcDbSymbolTable
 70
     0
  0
ENDTAB
  0
TABLE
  2
UCS
  5
7
330
0
100
AcDbSymbolTable
 70
     0
  0
ENDTAB
  0
TABLE
  2
APPID
  5
9
330
0
100
AcDbSymbolTable
 70
     1
  0
APPID
  5
12
330
9
100
AcDbSymbolTableRecord
100
AcDbRegAppTableRecord
  2
ACAD
 70
     0
  0
ENDTAB
  0
TABLE
  2
DIMSTYLE
  5
A
330
0
100
AcDbSymbolTable
 70
     1
  0
DIMSTYLE
105
27
330
A
100
AcDbSymbolTableRecord
100
AcDbDimStyleTableRecord
  2
ISO-25
 70
     0
  3

  4

  5

  6

  7

 40
1.0
 41
2.5
 42
0.625
 43
3.75
 44
1.25
 45
0.0
 46
0.0
 47
0.0
 48
0.0
140
2.5
141
2.5
142
0.0
143
0.03937007874016
144
1.0
145
0.0
146
1.0
147
0.625
 71
     0
 72
     0
 73
     0
 74
     0
 75
     0
 76
     0
 77
     1
 78
     8
170
     0
171
     3
172
     1
173
     0
174
     0
175
     0
176
     0
177
     0
178
     0
270
     2
271
     2
272
     2
273
     2
274
     3
340
11
275
     0
280
     0
281
     0
282
     0
283
     0
284
     8
285
     0
286
     0
287
     3
288
     0
  0
ENDTAB
  0
TABLE
  2
BLOCK_RECORD
  5
1
330
0
100
AcDbSymbolTable
 70
     1
  0
BLOCK_RECORD
  5
1F
102
{ACAD_XDICTIONARY
360
11C
102
}
330
1
100
AcDbSymbolTableRecord
100
AcDbBlockTableRecord
  2
*MODEL_SPACE
  0
BLOCK_RECORD
  5
1B
102
{ACAD_XDICTIONARY
360
11E
102
}
330
1
100
AcDbSymbolTableRecord
100
AcDbBlockTableRecord
  2
*PAPER_SPACE
  0
ENDTAB
  0
ENDSEC
  0
SECTION
  2
BLOCKS
  0
BLOCK
  5
20
330
1F
100
AcDbEntity
  8
0
100
AcDbBlockBegin
  2
*MODEL_SPACE
 70
     0
 10
0.0
 20
0.0
 30
0.0
  3
*MODEL_SPACE
  1

  0
ENDBLK
  5
21
330
1F
100
AcDbEntity
  8
0
100
AcDbBlockEnd
  0
BLOCK
  5
1C
330
1B
100
AcDbEntity
 67
     1
  8
0
100
AcDbBlockBegin
  2
*PAPER_SPACE
 70
     0
 10
0.0
 20
0.0
 30
0.0
  3
*PAPER_SPACE
  1

  0
ENDBLK
  5
1D
330
1B
100
AcDbEntity
 67
     1
  8
0
100
AcDbBlockEnd
  0
ENDSEC
  0
SECTION
  2
ENTITIES
  0
LWPOLYLINE
  5
A0
330
1F
100
AcDbEntity
  8
0
  6
CONTINUOUS
 62
     7
100
AcDbPolyline
 90
       29
 70
   128
 43
0.0
 10
4.555263460768633
 20
13.54298325402641
 10
4.705374977085365
 20
13.63944582167371
 10
4.853848557763669
 20
13.73848092578951
 10
5.000628571801755
 20
13.84003333273633
 10
5.145658990833534
 20
13.94404820624097
 10
5.288884581221514
 20
14.05046991530164
 10
5.430295408858232
 20
14.15927859170341
 10
5.569895050022377
 20
14.27046191715304
 10
5.707631052626544
 20
14.38396545274162
 10
5.843451759311927
 20
14.49973595165316
 10
5.977305314037574
 20
14.61771937234306
 10
6.109183173471066
 20
14.73789982023938
 10
6.239084542883807
 20
14.86026696387036
 10
6.366960546467079
 20
14.98476676169141
 10
6.492762507094316
 20
15.11134517215792
 10
6.616441548956804
 20
15.2399485510896
 10
6.746847968392942
 20
15.38025391124789
 10
6.874792914682004
 20
15.52286696456973
 10
7.000219564729307
 20
15.66771956307792
 10
7.123071294122311
 20
15.81474296274884
 10
7.243291279766333
 20
15.96386881692314
 10
7.342421353949481
 20
16.09099340461794
 10
7.439670702907813
 20
16.21958446525637
 10
7.535007537497453
 20
16.34959987822278
 10
7.628399571869149
 20
16.48099712553723
 10
7.720154465331011
 20
16.61423397087161
 10
7.809928696446988
 20
16.74883476916059
 10
7.897691270801796
 20
16.88475541296704
 10
7.9834113926623
 20
17.02195179485384
  0
LWPOLYLINE
  5
A1
330
1F
100
AcDbEntity
  8
0
  6
CONTINUOUS
 62
     7
100
AcDbPolyline
 90
       33
 70
   128
 43
0.0
 10
7.911651572677863
 20
16.74607706092898
 10
7.849952619367216
 20
16.6475394569149
 10
7.787157735321296
 20
16.54941352231407
 10
7.723321558131152
 20
16.45174455665652
 10
7.658276201380663
 20
16.35424606028302
 10
7.592257898145292
 20
16.25723771277173
 10
7.525319398535662
 20
16.16075487954521
 10
7.441294929477942
 20
16.04214660349591
 10
7.355978033039345
 20
15.92436027549807
 10
7.269462884558611
 20
15.80744040035311
 10
7.181843858056638
 20
15.69143168154462
 10
7.093194267246498
 20
15.57634822550519
 10
7.003556232743833
 20
15.46215267999077
 10
6.913018366787208
 20
15.34886690003776
 10
6.82166967897949
 20
15.23651254200045
 10
6.729579906755063
 20
15.12508602960014
 10
6.636796137783301
 20
15.01454524222119
 10
6.543405990892026
 20
14.904893358778
 10
6.449497084909054
 20
14.79613395554924
 10
6.349616389566037
 20
14.68197278204663
 10
6.249302567137652
 20
14.56873389108086
 10
6.14866389939524
 20
14.45640575908724
 10
6.047809065474444
 20
14.34497606777255
 10
5.953635514868669
 20
14.24183738254611
 10
5.859409909539792
 20
14.13939646902784
 10
5.765233378701779
 20
14.0376354458243
 10
5.671206256840004
 20
13.93653762363497
 10
5.577429871850584
 20
13.83608512106641
 10
5.483392021152748
 20
13.73560798191134
 10
5.389787694904579
 20
13.63567324502373
 10
5.296779415104164
 20
13.53624832653109
 10
5.204528511656695
 20
13.43729945046806
 10
5.113197109195961
 20
13.33879443032646
  0
ARC
  5
A2
330
1F
100
AcDbEntity
  8
0
  6
CONTINUOUS
 62
     7
100
AcDbCircle
 10
5.510436089768791
 20
11.80791322446565
 30
0.0
 40
1.976108565340298
100
AcDbArc
 50
123.1620171604822
 51
166.4400226379512
  0
LINE
  5
A3
330
1F
100
AcDbEntity
  8
0
  6
CONTINUOUS
 62
     7
100
AcDbLine
 10
9.232633055342608
 20
18.84787770135307
 30
0.0
 11
2.161565563175453
 21
11.77681020918591
 31
0.0
  0
ARC
  5
A5
330
1F
100
AcDbEntity
  8
0
  6
CONTINUOUS
 62
     7
100
AcDbCircle
 10
9.231645655898727
 20
16.25494457059032
 30
0.0
 40
1.465055923161237
100
AcDbArc
 50
141.0940559292701
 51
148.4303655935847
  0
LINE
  5
A6
330
1F
100
AcDbEntity
  8
0
  6
CONTINUOUS
 62
     7
100
AcDbLine
 10
4.555263460768633
 20
13.54298325402641
 30
0.0
 11
4.429488123549394
 21
13.46216730299695
 31
0.0
  0
LWPOLYLINE
  5
A7
330
1F
100
AcDbEntity
  8
0
  6
CONTINUOUS
 62
     7
100
AcDbPolyline
 90
       29
 70
   128
 43
0.0
 10
10.48185471802291
 20
17.02195179485384
 10
10.57658209511972
 20
16.87060070060793
 10
10.67380313187179
 20
16.72079594952965
 10
10.77347600568669
 20
16.57259635153516
 10
10.87555879463093
 20
16.4260605178585
 10
10.98000977545318
 20
16.281247457098
 10
11.08682149757283
 20
16.13816769940758
 10
11.19598561633961
 20
15.99682859602674
 10
11.30745742826995
 20
15.85728677136803
 10
11.42119203119811
 20
15.71959865116183
 10
11.53714511900481
 20
15.58382066113853
 10
11.65531112858988
 20
15.4499627354056
 10
11.77568191398518
 20
15.31803500675265
 10
11.89821018883921
 20
15.18809171540642
 10
12.02284846811828
 20
15.0601880950044
 10
12.14954926678873
 20
14.93437898181979
 10
12.28751315781809
 20
14.80198752903048
 10
12.42782964417673
 20
14.67202595892652
 10
12.57043713439839
 20
14.54455983661715
 10
12.7152732422882
 20
14.41965631666882
 10
12.86227617769775
 20
14.2973809641908
 10
12.98786634315388
 20
14.19636778059705
 10
13.11498159278768
 20
14.09725121680005
 10
13.24358298489786
 20
14.00007100922966
 10
13.3736307830546
 20
13.90486649695142
 10
13.50560937433776
 20
13.81131263596916
 10
13.63902562965291
 20
13.71978652500216
 10
13.77383742838439
 20
13.63032988730176
 10
13.91000264991658
 20
13.54298325402641
  0
LWPOLYLINE
  5
A8
330
1F
100
AcDbEntity
  8
0
  6
CONTINUOUS
 62
     7
100
AcDbPolyline
 90
       33
 70
   128
 43
0.0
 10
13.35206900148925
 20
13.33879443032646
 10
13.26766604293721
 20
13.42984648568535
 10
13.18246676633097
 20
13.52127246084912
 10
13.09660230188903
 20
13.61309977395439
 10
13.01020219037271
 20
13.70535425368054
 10
12.92339795936482
 20
13.79806331816419
 10
12.81447643150227
 20
13.91464205605888
 10
12.7051897258494
 20
14.03207830610974
 10
12.59570076176859
 20
14.15040028118197
 10
12.48617265730437
 20
14.26963619414075
 10
12.37672640988565
 20
14.38985081536674
 10
12.26746493686574
 20
14.51110136531893
 10
12.15852751443125
 20
14.63340532802645
 10
12.05005361745096
 20
14.75677859806124
 10
11.9587555935913
 20
14.86199271701876
 10
11.86791275053558
 20
14.96804845356051
 10
11.77760475982563
 20
15.0749430261364
 10
11.68791188904978
 20
15.18267285846774
 10
11.59891380974985
 20
15.29123357954724
 10
11.51369983066456
 20
15.39685579163933
 10
11.42922514785664
 20
15.50329458736483
 10
11.34556287635701
 20
15.61053089323743
 10
11.26278613119659
 20
15.7185452384065
 10
11.18051105846303
 20
15.82792949699465
 10
11.09922681360778
 20
15.93811762355868
 10
11.01901247212625
 20
16.04907206717237
 10
10.93994671214955
 20
16.16075487954521
 10
10.8732126564715
 20
16.25694008691215
 10
10.8073929360443
 20
16.35364782833163
 10
10.74254010229644
 20
16.45084293706322
 10
10.67849908381042
 20
16.54880952858035
 10
10.61550551761525
 20
16.64723626795514
 10
10.55361453800735
 20
16.74607706092898
  0
ARC
  5
A9
330
1F
100
AcDbEntity
  8
0
  6
CONTINUOUS
 62
     7
100
AcDbCircle
 10
12.95468917301765
 20
11.80781996722046
 30
0.0
 40
1.976263679624305
100
AcDbArc
 50
13.56120673276451
 51
56.83604341869006
  0
LINE
  5
AA
330
1F
100
AcDbEntity
  8
0
  6
CONTINUOUS
 62
     7
100
AcDbLine
 10
14.03577798713582
 20
13.46216730299695
 30
0.0
 11
13.91000264991658
 21
13.54298325402641
 31
0.0
  0
ARC
  5
AB
330
1F
100
AcDbEntity
  8
0
  6
CONTINUOUS
 62
     7
100
AcDbCircle
 10
9.233857747267911
 20
16.25511338924279
 30
0.0
 40
1.46476536664879
100
AcDbArc
 50
31.56886759687774
 51
38.90664086717844
  0
LINE
  5
AD
330
1F
100
AcDbEntity
  8
0
  6
CONTINUOUS
 62
     7
100
AcDbLine
 10
16.30370054750976
 20
11.77681020918591
 30
0.0
 11
9.232633055342608
 21
18.84787770135307
 31
0.0
  0
ARC
  5
AE
330
1F
100
AcDbEntity
  8
0
  6
CONTINUOUS
 62
     7
100
AcDbCircle
 10
13.6220701206583
 20
11.58688283177556
 30
0.0
 40
1.31857255552786
100
AcDbArc
 50
308.8250780159887
 51
346.5167442620897
  0
ARC
  5
AF
330
1F
100
AcDbEntity
  8
0
  6
CONTINUOUS
 62
     7
100
AcDbCircle
 10
9.232633055342606
 20
17.03768434151551
 30
0.0
 40
8.720000000000002
100
AcDbArc
 50
225.0000000000008
 51
315.0000000000007
  0
ARC
  5
B0
330
1F
100
AcDbEntity
  8
0
  6
CONTINUOUS
 62
     7
100
AcDbCircle
 10
4.842996409975366
 20
11.58676235301037
 30
0.0
 40
1.318353571640088
100
AcDbArc
 50
193.4807637404236
 51
231.1783967067325
  0
ARC
  5
B1
330
1F
100
AcDbEntity
  8
0
  6
CONTINUOUS
 62
     7
100
AcDbCircle
 10
8.167576503496814
 20
15.71464112856581
 30
0.0
 40
6.618669640319596
100
AcDbArc
 50
231.1581205740196
 51
276.1486196279193
  0
ARC
  5
B2
330
1F
100
AcDbEntity
  8
0
  6
CONTINUOUS
 62
     7
100
AcDbCircle
 10
9.232634191959421
 20
5.824173273518007
 30
0.0
 40
3.328978454309691
100
AcDbArc
 50
83.85856943538481
 51
96.14146991558129
  0
ARC
  5
B3
330
1F
100
AcDbEntity
  8
0
  6
CONTINUOUS
 62
     7
100
AcDbCircle
 10
10.29769442179422
 20
15.71460348169871
 30
0.0
 40
6.618632725707072
100
AcDbArc
 50
263.8513040267163
 51
308.8420832328608
  0
ARC
  5
B4
330
1F
100
AcDbEntity
  8
0
  6
CONTINUOUS
 62
     7
100
AcDbCircle
 10
4.873550976157781
 20
11.59361835776638
 30
0.0
 40
1.349622378343357
100
AcDbArc
 50
180.9674479316932
 51
193.4539182047281
  0
ARC
  5
B5
330
1F
100
AcDbEntity
  8
0
  6
CONTINUOUS
 62
     7
100
AcDbCircle
 10
5.575286720559931
 20
11.79311019469304
 30
0.0
 40
2.042504205716896
100
AcDbArc
 50
166.4766539866689
 51
173.5369256489115
  0
ARC
  5
B6
330
1F
100
AcDbEntity
  8
0
  6
CONTINUOUS
 62
     7
100
AcDbCircle
 10
7.012927129874289
 20
11.63053545169486
 30
0.0
 40
3.489316972814415
100
AcDbArc
 50
173.540239009194
 51
180.9804176520044
  0
ARC
  5
B7
330
1F
100
AcDbEntity
  8
0
  6
CONTINUOUS
 62
     7
100
AcDbCircle
 10
12.88993919418057
 20
11.79310385274478
 30
0.0
 40
2.042544860069136
100
AcDbArc
 50
6.463124200048976
 51
13.52326579166331
  0
ARC
  5
B8
330
1F
100
AcDbEntity
  8
0
  6
CONTINUOUS
 62
     7
100
AcDbCircle
 10
13.59177293171506
 20
11.59361052545717
 30
0.0
 40
1.349564457168729
100
AcDbArc
 50
346.5458143779043
 51
359.0328431112268
  0
ARC
  5
B9
330
1F
100
AcDbEntity
  8
0
  6
CONTINUOUS
 62
     7
100
AcDbCircle
 10
11.45217133994808
 20
11.63052518135756
 30
0.0
 40
3.48948441342716
100
AcDbArc
 50
359.0197980563326
 51
6.459576614699382
  0
ARC
  5
BA
330
1F
100
AcDbEntity
  8
0
  6
CONTINUOUS
 62
     7
100
AcDbCircle
 10
7.010956082640627
 20
11.58100160843937
 30
0.0
 40
2.586759502923982
100
AcDbArc
 50
137.1927070789365
 51
143.0839352743886
  0
LWPOLYLINE
  5
BB
330
1F
100
AcDbEntity
  8
0
  6
CONTINUOUS
 62
     7
100
AcDbPolyline
 90
        3
 70
   128
 43
0.0
 10
5.436390977197262
 20
12.79141596976026
 10
5.479794682158404
 20
12.84883828980827
 10
5.524079741133623
 20
12.90560535612805
  0
ARC
  5
BC
330
1F
100
AcDbEntity
  8
0
  6
CONTINUOUS
 62
     7
100
AcDbCircle
 10
9.232629290194681
 20
16.25137584081534
 30
0.0
 40
1.468069725699388
100
AcDbArc
 50
38.99001494948809
 51
141.0095179530812
  0
ARC
  5
BD
330
1F
100
AcDbEntity
  8
0
  6
CONTINUOUS
 62
     7
100
AcDbCircle
 10
9.23263305534261
 20
15.94531227347478
 30
0.0
 40
1.46683676429819
100
AcDbArc
 50
32.74997187666927
 51
147.2500281233309
  0
LINE
  5
BE
330
1F
100
AcDbEntity
  8
0
  6
CONTINUOUS
 62
     7
100
AcDbLine
 10
2.161565563175453
 20
11.77681020918591
 30
0.0
 11
3.066662094089759
 21
10.87171288354301
 31
0.0
  0
ARC
  5
BF
330
1F
100
AcDbEntity
  8
0
  6
CONTINUOUS
 62
     7
100
AcDbCircle
 10
6.783745700166178
 20
11.8103973791586
 30
0.0
 40
1.674605468285542
100
AcDbArc
 50
194.0535276295927
 51
207.4821865261969
  0
ARC
  5
C0
330
1F
100
AcDbEntity
  8
0
  6
CONTINUOUS
 62
     7
100
AcDbCircle
 10
11.7042881107084
 20
11.80544444459315
 30
0.0
 40
1.651311825588738
100
AcDbArc
 50
345.9220233317855
 51
36.6648358373667
  0
ARC
  5
C1
330
1F
100
AcDbEntity
  8
0
  6
CONTINUOUS
 62
     7
100
AcDbCircle
 10
11.68105095178729
 20
11.81057513541814
 30
0.0
 40
1.675103981360158
100
AcDbArc
 50
332.5198296539662
 51
345.9444816925337
  0
ARC
  5
C2
330
1F
100
AcDbEntity
  8
0
  6
CONTINUOUS
 62
     7
100
AcDbCircle
 10
11.70073476904984
 20
11.80262109486401
 30
0.0
 40
1.65413811130483
100
AcDbArc
 50
298.4207055815773
 51
332.4386069648119
  0
ARC
  5
C3
330
1F
100
AcDbEntity
  8
0
  6
CONTINUOUS
 62
     7
100
AcDbCircle
 10
9.232629760879726
 20
16.72604720949379
 30
0.0
 40
7.199450418815606
100
AcDbArc
 50
268.240234215807
 51
271.7598182459454
  0
LWPOLYLINE
  5
C4
330
1F
100
AcDbEntity
  8
0
  6
CONTINUOUS
 62
     7
100
AcDbPolyline
 90
       57
 70
   128
 43
0.0
 10
9.232633055342608
 20
9.174747983844122
 10
9.213217505098256
 20
9.174826661975226
 10
9.193985555786266
 20
9.175062696368536
 10
9.175299006048215
 20
9.175457676481247
 10
9.15734507500467
 20
9.176019549599331
 10
9.140281922959658
 20
9.176755468280157
 10
9.124429453008744
 20
9.177666227252325
 10
9.109944754434996
 20
9.178765336901983
 10
9.096958231025311
 20
9.180057565600714
 10
9.085713653359189
 20
9.181535760791144
 10
9.076339072081818
 20
9.183207869759243
 10
9.068903268469744
 20
9.185069124133429
 10
9.063546636296683
 20
9.18709647678439
 10
9.06035205085414
 20
9.189281185697556
 10
9.059314408494406
 20
9.1916049721152
 10
9.060453279409182
 20
9.194024920693081
 10
9.063784707182023
 20
9.196515600116095
 10
9.069246566388383
 20
9.19904601596896
 10
9.076735964510215
 20
9.201558153064093
 10
9.086214804245406
 20
9.204017043343228
 10
9.097562758717311
 20
9.206383745105108
 10
9.110566890332473
 20
9.208596269519171
 10
9.125141691260907
 20
9.210617264341355
 10
9.141116083754473
 20
9.2124101720562
 10
9.158190032932534
 20
9.213928103676479
 10
9.176215154273682
 20
9.215136091143927
 10
9.195008523606631
 20
9.216016650429409
 10
9.214216210413351
 20
9.216546734403612
 10
9.233640725510596
 20
9.216707269580206
 10
9.25311357605544
 20
9.21650461378797
 10
9.27226826595105
 20
9.215943535398485
 10
9.290908777309828
 20
9.215028008054733
 10
9.308874809338025
 20
9.213783463071823
 10
9.325829356753203
 20
9.212242484322231
 10
9.34160784243879
 20
9.210429708392462
 10
9.356065197381747
 20
9.20838169279798
 10
9.368930338415875
 20
9.206153273811978
 10
9.380066485299044
 20
9.203779419492724
 10
9.389381238414221
 20
9.201301455727261
 10
9.396699136588349
 20
9.198781371346157
 10
9.401920056435836
 20
9.196258108050665
 10
9.405026439421746
 20
9.193762660256069
 10
9.405959475629899
 20
9.191349069506964
 10
9.404682011498383
 20
9.189048330218634
 10
9.401238974028203
 20
9.186874747505825
 10
9.395695381952696
 20
9.184864878883999
 10
9.38807607054052
 20
9.183032234739304
 10
9.378481473618123
 20
9.181378404528937
 10
9.367091795894873
 20
9.179917693367642
 10
9.353976377440863
 20
9.178650101255419
 10
9.339293257488185
 20
9.177567680906296
 10
9.323317915045592
 20
9.176672021777472
 10
9.306175197008622
 20
9.175955971311571
 10
9.288051063660157
 20
9.175409198036831
 10
9.269286599475517
 20
9.17503011249606
 10
9.251064270579192
 20
9.174818714689255
 10
9.232633055342608
 20
9.174747983844122
  0
LINE
  5
C5
330
1F
100
AcDbEntity
  8
0
  6
CONTINUOUS
 62
     7
100
AcDbLine
 10
15.39860401659545
 20
10.87171288354301
 30
0.0
 11
16.30370054750976
 21
11.77681020918591
 31
0.0
  0
ARC
  5
C6
330
1F
100
AcDbEntity
  8
0
  6
CONTINUOUS
 62
     7
100
AcDbCircle
 10
6.760833363308405
 20
11.80546880682391
 30
0.0
 40
1.651177459968034
100
AcDbArc
 50
143.3330224610918
 51
194.080017451058
  0
ARC
  5
C7
330
1F
100
AcDbEntity
  8
0
  6
CONTINUOUS
 62
     7
100
AcDbCircle
 10
6.764085999777575
 20
11.80221264114123
 30
0.0
 40
1.653566940642518
100
AcDbArc
 50
207.5568238852886
 51
241.5861296979877
  0
LWPOLYLINE
  5
C8
330
1F
100
AcDbEntity
  8
0
  6
CONTINUOUS
 62
     7
100
AcDbPolyline
 90
        3
 70
   128
 43
0.0
 10
12.94118636955159
 20
12.90560535612805
 10
12.98546109705505
 20
12.84885180019442
 10
13.02887513348795
 20
12.79141596976026
  0
ARC
  5
C9
330
1F
100
AcDbEntity
  8
0
  6
CONTINUOUS
 62
     7
100
AcDbCircle
 10
11.4754677950426
 20
11.59871547383018
 30
0.0
 40
2.559200434291576
100
AcDbArc
 50
36.88339483333665
 51
42.83822835493864
  0
LINE
  5
CA
330
1F
100
AcDbEntity
  8
0
  6
CONTINUOUS
 62
     7
100
AcDbLine
 10
5.988391976647947
 20
10.34181169691785
 30
0.0
 11
5.977257431639604
 21
10.34784527642631
 31
0.0
  0
LWPOLYLINE
  5
CB
330
1F
100
AcDbEntity
  8
0
  6
CONTINUOUS
 62
     7
100
AcDbPolyline
 90
       33
 70
   128
 43
0.0
 10
5.483336390150958
 20
10.29585731052462
 10
5.545775037103268
 20
10.24526806695366
 10
5.627432605716957
 20
10.18152050200208
 10
5.710670889510089
 20
10.11927974247042
 10
5.795483530653886
 20
10.05862526121839
 10
5.88186337659098
 20
9.999637325834276
 10
5.969857316308591
 20
9.94236123584811
 10
6.059464157713823
 20
9.886859774819058
 10
6.150654098484291
 20
9.833214799792608
 10
6.243397733661903
 20
9.781503399442675
 10
6.337730826033525
 20
9.731769283842089
 10
6.433635891570024
 20
9.684068878721237
 10
6.531056703223161
 20
9.638474504382452
 10
6.629936835262551
 20
9.59505768639946
 10
6.71694113919474
 20
9.559176484973272
 10
6.805047533008827
 20
9.524987260730108
 10
6.894200783067319
 20
9.492528160642626
 10
6.984344662321978
 20
9.461836536954882
 10
7.075423937135312
 20
9.432948947182339
 10
7.182216387086485
 20
9.40173041843478
 10
7.290235500627133
 20
9.372977932523729
 10
7.399369817071531
 20
9.34672725223605
 10
7.509507478369646
 20
9.323015729815802
 10
7.620625338051094
 20
9.301860054563523
 10
7.732674520307157
 20
9.283261021207811
 10
7.84552776922124
 20
9.267234524320604
 10
7.959057828876748
 20
9.253794869016648
 10
8.055027168088528
 20
9.244496544431687
 10
8.151432614617917
 20
9.237020532519659
 10
8.248194596264136
 20
9.231362859637579
 10
8.345234037531785
 20
9.227517167956671
 10
8.442471614572777
 20
9.225480278562548
 10
8.526640475882464
 20
9.225169539681118
  0
ARC
  5
CC
330
1F
100
AcDbEntity
  8
0
  6
CONTINUOUS
 62
     7
100
AcDbCircle
 10
9.221065197699562
 20
16.3753432986185
 30
0.0
 40
6.848556618399865
100
AcDbArc
 50
259.3005822816622
 51
268.246838247909
  0
ARC
  5
CD
330
1F
100
AcDbEntity
  8
0
  6
CONTINUOUS
 62
     7
100
AcDbCircle
 10
9.244022760550203
 20
16.37712326922634
 30
0.0
 40
6.850341207262961
100
AcDbArc
 50
271.7541956444125
 51
280.6981139657386
  0
LWPOLYLINE
  5
CE
330
1F
100
AcDbEntity
  8
0
  6
CONTINUOUS
 62
     7
100
AcDbPolyline
 90
       32
 70
   128
 43
0.0
 10
9.938243420018128
 20
9.224835753670376
 10
10.04026367375589
 20
9.225318153928757
 10
10.14210734873351
 20
9.227769891650519
 10
10.24368349819717
 20
9.232200503578823
 10
10.34490102638142
 20
9.238618731728237
 10
10.44573142239786
 20
9.247038086484909
 10
10.5461428971026
 20
9.257460157306036
 10
10.64604574550526
 20
9.269881765277228
 10
10.74535065997975
 20
9.284299731484097
 10
10.84794912844238
 20
9.301414211820603
 10
10.94984008977152
 20
9.320685585569382
 10
11.05093095808562
 20
9.342094779244106
 10
11.15112835277455
 20
9.365621924629849
 10
11.2599304726654
 20
9.393845916023892
 10
11.36759752143758
 20
9.424586812884649
 10
11.47402598569132
 20
9.457796931496304
 10
11.57911195466257
 20
9.493430972328823
 10
11.68281549323933
 20
9.531457940966925
 10
11.78514136979319
 20
9.571845253538132
 10
11.88601249565022
 20
9.614526947568895
 10
11.98535198081868
 20
9.659437855314257
 10
12.08759123195546
 20
9.708745996386847
 10
12.18815241365966
 20
9.760393023720425
 10
12.28698148438669
 20
9.814289132983526
 10
12.38402360786336
 20
9.870343725116095
 10
12.47825735916035
 20
9.927859028409958
 10
12.57079357017415
 20
9.987382610868456
 10
12.6616163463328
 20
10.04882466816012
 10
12.75071098515726
 20
10.1120930117677
 10
12.8380615920756
 20
10.17709545317395
 10
12.92365306724446
 20
10.24374139331881
 10
12.9869603525533
 20
10.29496880395317
  0
LINE
  5
CF
330
1F
100
AcDbEntity
  8
0
  6
CONTINUOUS
 62
     7
100
AcDbLine
 10
12.48800867904561
 20
10.34784527642631
 30
0.0
 11
12.47687413403727
 21
10.34181169691785
 31
0.0
  0
LWPOLYLINE
  5
D0
330
1F
100
AcDbEntity
  8
0
  6
CONTINUOUS
 62
     7
100
AcDbPolyline
 90
       21
 70
   128
 43
0.0
 10
9.080047101868563
 20
9.182546655566534
 10
9.086213599734875
 20
9.184148033689499
 10
9.097561231348288
 20
9.186516324908575
 10
9.11056501526969
 20
9.188732028237026
 10
9.125139642351243
 20
9.190755407245001
 10
9.14111389825083
 20
9.192551493874233
 10
9.158187754296633
 20
9.194071014951706
 10
9.176212813549611
 20
9.195280591876349
 10
9.195006167360517
 20
9.196162740619024
 10
9.214213879002503
 20
9.196693619321823
 10
9.2336382485806
 20
9.196854949227017
 10
9.253110983874273
 20
9.196651498706183
 10
9.272265589950851
 20
9.196088830859503
 10
9.290905958506835
 20
9.195173303515753
 10
9.308871897402775
 20
9.193926374347052
 10
9.325826395147416
 20
9.192383806140265
 10
9.341605023635796
 20
9.190567851296108
 10
9.35606256484327
 20
9.188517451515835
 10
9.368927929394814
 20
9.18628664834404
 10
9.380064461224648
 20
9.183910409838995
 10
9.385214786820981
 20
9.182539503009161
  0
ARC
  5
D1
330
1F
100
AcDbEntity
  8
0
  6
CONTINUOUS
 62
     7
100
AcDbCircle
 10
14.01395705703387
 20
16.42488120880146
 30
0.0
 40
3.551668171524131
100
AcDbArc
 50
222.6238906685147
 51
246.4491479957644
  0
ELLIPSE
  5
D2
330
1F
100
AcDbEntity
  8
0
  6
CONTINUOUS
 62
     7
100
AcDbEllipse
 10
14.0326330553426
 20
16.43287377406987
 30
0.0
 11
0.0
 21
3.249457452335011
 31
0.0
210
0.0
220
0.0
230
1.0
 40
0.999989339918846
 41
1.825650873484367
 42
2.364735157247644
  0
LWPOLYLINE
  5
D3
330
1F
100
AcDbEntity
  8
0
  6
CONTINUOUS
 62
     7
100
AcDbPolyline
 90
       36
 70
   128
 43
0.0
 10
13.20140793034769
 20
13.35328074319267
 10
13.15114810178019
 20
13.36931479000155
 10
13.1012554378245
 20
13.38624370121066
 10
13.02321587114868
 20
13.4147851866792
 10
12.94613196561075
 20
13.44549985749626
 10
12.87007922042744
 20
13.47832572483126
 10
12.79513154535827
 20
13.51319960776075
 10
12.72136404225565
 20
13.55005912008985
 10
12.64727626352843
 20
13.58970614297295
 10
12.57439528017577
 20
13.63137058439954
 10
12.50277553110656
 20
13.67499164763196
 10
12.43247244864043
 20
13.72050774120394
 10
12.36354067036844
 20
13.76785767101351
 10
12.28508665272928
 20
13.8252084654878
 10
12.20845196753082
 20
13.8849947057476
 10
12.13370575616099
 20
13.94713056110445
 10
12.06091656396128
 20
14.01152940614128
 10
11.99015392968393
 20
14.078104615441
 10
11.9198512445821
 20
14.14845240139071
 10
11.85164704034067
 20
14.22105721655591
 10
11.78561323989766
 20
14.29582726978366
 10
11.72182196487324
 20
14.37266957782809
 10
11.66034513820546
 20
14.45149115744336
 10
11.60650803754068
 20
14.5248044731528
 10
11.55459418008066
 20
14.59972671690686
 10
11.50465899814503
 20
14.67617921057446
 10
11.45675812273559
 20
14.7540824812959
 10
11.41090486555633
 20
14.8334285817852
 10
11.36712108164367
 20
14.91418254398409
 10
11.32546180595295
 20
14.99625058991814
 10
11.28598167607523
 20
15.07953933897717
 10
11.24668036013183
 20
15.16878974460665
 10
11.20985204090016
 20
15.25933476312065
 10
11.17555334279276
 20
15.35104286693636
 10
11.14384108890431
 20
15.44378213110669
 10
11.11863726486104
 20
15.52438211463992
  0
LWPOLYLINE
  5
D4
330
1F
100
AcDbEntity
  8
0
  6
CONTINUOUS
 62
     7
100
AcDbPolyline
 90
       36
 70
   128
 43
0.0
 10
5.263858180337521
 20
13.35328074319267
 10
5.314118008905026
 20
13.36931479000155
 10
5.364010672860715
 20
13.38624370121066
 10
5.442050239536537
 20
13.4147851866792
 10
5.51913414507446
 20
13.44549985749626
 10
5.595186890257769
 20
13.47832572483126
 10
5.670134565326942
 20
13.51319960776075
 10
5.743902068429562
 20
13.55005912008985
 10
5.817989847156776
 20
13.58970614297295
 10
5.890870830509437
 20
13.63137058439954
 10
5.962490579578651
 20
13.67499164763196
 10
6.032793662044777
 20
13.72050774120394
 10
6.101725440316769
 20
13.76785767101351
 10
6.180179457955929
 20
13.8252084654878
 10
6.256814143154396
 20
13.8849947057476
 10
6.331560354524228
 20
13.94713056110445
 10
6.404349546723935
 20
14.01152940614128
 10
6.475112181001279
 20
14.078104615441
 10
6.545414866103106
 20
14.14845240139071
 10
6.61361907034454
 20
14.22105721655591
 10
6.679652870787553
 20
14.29582726978366
 10
6.743444145811968
 20
14.37266957782809
 10
6.804920972479753
 20
14.45149115744336
 10
6.858758073144528
 20
14.5248044731528
 10
6.91067193060455
 20
14.59972671690686
 10
6.960607112540179
 20
14.67617921057446
 10
7.008507987949623
 20
14.7540824812959
 10
7.054361245128883
 20
14.8334285817852
 10
7.098145029041541
 20
14.91418254398409
 10
7.139804304732257
 20
14.99625058991814
 10
7.179284434609982
 20
15.07953933897717
 10
7.218585750553383
 20
15.16878974460665
 10
7.255414069785051
 20
15.25933476312065
 10
7.289712767892453
 20
15.35104286693636
 10
7.321425021780901
 20
15.44378213110669
 10
7.346628845824175
 20
15.52438211463992
  0
ELLIPSE
  5
D5
330
1F
100
AcDbEntity
  8
0
  6
CONTINUOUS
 62
     7
100
AcDbEllipse
 10
4.432633055342609
 20
16.43287377406987
 30
0.0
 11
0.0
 21
3.249457452335011
 31
0.0
210
0.0
220
0.0
230
1.0
 40
0.9999893399188458
 41
3.918450149931945
 42
4.457534433695232
  0
ARC
  5
D6
330
1F
100
AcDbEntity
  8
0
  6
CONTINUOUS
 62
     7
100
AcDbCircle
 10
4.451309053651294
 20
16.42488120880153
 30
0.0
 40
3.551668171524217
100
AcDbArc
 50
293.5508520042375
 51
317.3761093314866
  0
ARC
  5
D7
330
1F
100
AcDbEntity
  8
0
  6
CONTINUOUS
 62
     7
100
AcDbCircle
 10
5.134831164801485
 20
14.09588060302278
 30
0.0
 40
5.950610136286586
100
AcDbArc
 50
14.79447897880112
 51
26.36884863821517
  0
LWPOLYLINE
  5
D8
330
1F
100
AcDbEntity
  8
0
  6
CONTINUOUS
 62
     7
100
AcDbPolyline
 90
       14
 70
   128
 43
0.0
 10
11.11863726486104
 20
15.52438211463992
 10
11.09238141883748
 20
15.60880553745333
 10
11.06433286378122
 20
15.69277119659487
 10
11.03456252921956
 20
15.77621491773033
 10
11.00314134467976
 20
15.85907312257194
 10
10.97014004100697
 20
15.94128163678551
 10
10.92676196604308
 20
16.04308259510104
 10
10.88110172857182
 20
16.1438796125164
 10
10.83329939950841
 20
16.24360354764366
 10
10.78349544713236
 20
16.34218545777702
 10
10.72885984290974
 20
16.44503148419762
 10
10.67223215211766
 20
16.54664687338575
 10
10.61376575737533
 20
16.64700440588697
 10
10.55361453800735
 20
16.74607706092898
  0
ARC
  5
D9
330
1F
100
AcDbEntity
  8
0
  6
CONTINUOUS
 62
     7
100
AcDbCircle
 10
13.32849265193249
 20
14.09660828968977
 30
0.0
 40
5.948546734534954
100
AcDbArc
 50
153.6291219899787
 51
165.2075090666508
  0
LWPOLYLINE
  5
DA
330
1F
100
AcDbEntity
  8
0
  6
CONTINUOUS
 62
     7
100
AcDbPolyline
 90
       14
 70
   128
 43
0.0
 10
7.911651572677863
 20
16.74607706092898
 10
7.854435782723996
 20
16.65193331264559
 10
7.798737229002886
 20
16.55663045270347
 10
7.744687637779487
 20
16.46019093218549
 10
7.692418536636604
 20
16.36263700349235
 10
7.642012378666175
 20
16.26389535291099
 10
7.593598704629514
 20
16.16399876299604
 10
7.547319274240109
 20
16.06301438831393
 10
7.503315747870378
 20
15.96100938343111
 10
7.468371134095762
 20
15.87498239699109
 10
7.435148498508705
 20
15.78823339962069
 10
7.403729300790402
 20
15.70083510898653
 10
7.374195397986345
 20
15.6128604414374
 10
7.346628845824175
 20
15.52438211463992
  0
LWPOLYLINE
  5
DB
330
1F
100
AcDbEntity
  8
0
  6
CONTINUOUS
 62
     7
100
AcDbPolyline
 90
       13
 70
   128
 43
0.0
 10
5.263858180337521
 20
13.35328074319267
 10
5.23197962949015
 20
13.34263535363579
 10
5.200744014077756
 20
13.33058091027641
 10
5.1702943852478
 20
13.31713926815096
 10
5.139941713306678
 20
13.301897168389
 10
5.110589207304888
 20
13.28521859668795
 10
5.082390249861651
 20
13.26717150234286
 10
5.055989763233436
 20
13.2482124569327
 10
5.03083938468831
 20
13.22802952948316
 10
5.007059118244423
 20
13.20672682944043
 10
4.984064441018674
 20
13.18368287904167
 10
4.962617497735593
 20
13.15959942363802
 10
4.942799748076373
 20
13.13461871964836
  0
LWPOLYLINE
  5
DC
330
1F
100
AcDbEntity
  8
0
  6
CONTINUOUS
 62
     7
100
AcDbPolyline
 90
       13
 70
   128
 43
0.0
 10
13.52246636260884
 20
13.13461871964836
 10
13.50332810590006
 20
13.15878999256197
 10
13.48266555974222
 20
13.18212521099154
 10
13.46055104443766
 20
13.20449523154004
 10
13.43630506703592
 20
13.22642894608879
 10
13.41061387568053
 20
13.24719401223564
 10
13.38360502431132
 20
13.26667598906262
 10
13.35607085733947
 20
13.28437538964653
 10
13.3274284413391
 20
13.30076825641695
 10
13.29782241691487
 20
13.31578902426465
 10
13.2664759368632
 20
13.32976988974317
 10
13.2342854550415
 20
13.34227534158134
 10
13.20140793034769
 20
13.35328074319267
  0
LWPOLYLINE
  5
DD
330
1F
100
AcDbEntity
  8
0
  6
CONTINUOUS
 62
     7
100
AcDbPolyline
 90
       17
 70
   128
 43
0.0
 10
7.521721264812721
 20
9.558903893064501
 10
7.572585186455024
 20
9.52284308297539
 10
7.624737859858446
 20
9.488562464943569
 10
7.678096732589972
 20
9.456135153999966
 10
7.732579252216591
 20
9.425633470446905
 10
7.789328337801866
 20
9.396524151395798
 10
7.847203355126951
 20
9.36949304762586
 10
7.906098009241992
 20
9.344610095253628
 10
7.965905806514991
 20
9.321949998767218
 10
8.032328328583016
 20
9.299761971067429
 10
8.099763930930071
 20
9.280325293770474
 10
8.168042044931027
 20
9.263717055550259
 10
8.236992101960751
 20
9.250015139809292
 10
8.308741093768052
 20
9.238985896340054
 10
8.381079674853259
 20
9.231136361987433
 10
8.453786662313712
 20
9.226515015195847
 10
8.526640475882464
 20
9.225169539681118
  0
ARC
  5
DE
330
1F
100
AcDbEntity
  8
0
  6
CONTINUOUS
 62
     7
100
AcDbCircle
 10
8.290734142959163
 20
11.4232224798579
 30
0.0
 40
1.81006586740499
100
AcDbArc
 50
239.6447316998763
 51
259.1363054601448
  0
LWPOLYLINE
  5
DF
330
1F
100
AcDbEntity
  8
0
  6
CONTINUOUS
 62
     7
100
AcDbPolyline
 90
       18
 70
   128
 43
0.0
 10
9.938243420018128
 20
9.224835753670376
 10
10.00125903993186
 20
9.225763996671677
 10
10.06417636185226
 20
9.229145566851935
 10
10.12685054649251
 20
9.234952648710253
 10
10.18913660555419
 20
9.24315583728854
 10
10.25255475550231
 20
9.254034877052944
 10
10.31547391523259
 20
9.267375191282273
 10
10.37775848417815
 20
9.283121148974737
 10
10.43927266309
 20
9.301217119128546
 10
10.49845063794987
 20
9.32108692351087
 10
10.55683189739125
 20
9.343119979134243
 10
10.61431203394469
 20
9.367252707710903
 10
10.67078673948185
 20
9.393418352038702
 10
10.72740787376301
 20
9.422214548022589
 10
10.78293118982848
 20
9.453061143786749
 10
10.83726539323069
 20
9.485882640114468
 10
10.89031879215774
 20
9.520603537789028
 10
10.94343239177602
 20
9.558192610970181
  0
ARC
  5
E0
330
1F
100
AcDbEntity
  8
0
  6
CONTINUOUS
 62
     7
100
AcDbCircle
 10
10.17623761638198
 20
11.41890442032862
 30
0.0
 40
1.805477949985433
100
AcDbArc
 50
280.8365217426927
 51
300.3778110581763
  0
ARC
  5
E1
330
1F
100
AcDbEntity
  8
0
  6
CONTINUOUS
 62
     7
100
AcDbCircle
 10
5.733227635962113
 20
10.59136507813498
 30
0.0
 40
0.3870019062628887
100
AcDbArc
 50
229.7810227901098
 51
266.486185332929
  0
LWPOLYLINE
  5
E2
330
1F
100
AcDbEntity
  8
0
  6
CONTINUOUS
 62
     7
100
AcDbPolyline
 90
       24
 70
   128
 43
0.0
 10
7.521721264812721
 20
9.558903893064501
 10
7.444958429627988
 20
9.613696456185024
 10
7.366852105750017
 20
9.66614536467298
 10
7.287545145644121
 20
9.716202934812546
 10
7.207180799139909
 20
9.763819098702114
 10
7.125902117384844
 20
9.808943788440069
 10
7.041710755321754
 20
9.852611740659716
 10
6.956664265288287
 20
9.893703977496466
 10
6.87091702331441
 20
9.932203809649786
 10
6.784624001476539
 20
9.96809454781914
 10
6.697939575804643
 20
10.00135950270398
 10
6.621566753678891
 20
10.02842001143201
 10
6.54497577855326
 20
10.05351118269666
 10
6.468263011270139
 20
10.07664334796969
 10
6.391524812671913
 20
10.09782445453707
 10
6.314814628256732
 20
10.11707754952812
 10
6.238160273525489
 20
10.13444157464409
 10
6.161646387073768
 20
10.14993719282849
 10
6.085358004861447
 20
10.16358904066785
 10
6.006043693516029
 20
10.17590177082125
 10
5.927047670973712
 20
10.18628728412692
 10
5.848450204822792
 20
10.1947829328289
 10
5.770331562651568
 20
10.20142765862846
 10
5.709508598936968
 20
10.20536633355522
  0
LWPOLYLINE
  5
E3
330
1F
100
AcDbEntity
  8
0
  6
CONTINUOUS
 62
     7
100
AcDbPolyline
 90
       24
 70
   128
 43
0.0
 10
10.94343239177602
 20
9.558192610970181
 10
11.02034443725484
 20
9.613075773150763
 10
11.09860970685221
 20
9.665608922870001
 10
11.17808475205637
 20
9.715743581683478
 10
11.25862612435556
 20
9.763428092232388
 10
11.34009037523803
 20
9.808613181343716
 10
11.42448975751139
 20
9.852337559293749
 10
11.50975360581613
 20
9.893475890389126
 10
11.59572615334726
 20
9.932011485329311
 10
11.68225203066405
 20
9.967926065356573
 10
11.76917566964365
 20
10.00120373589897
 10
11.8455876321528
 20
10.02820463998222
 10
11.92222172130482
 20
10.05323620660209
 10
11.99898137757517
 20
10.07630797250175
 10
12.07577004143931
 20
10.09742788496716
 10
12.15253486344553
 20
10.11661819639905
 10
12.2292478294108
 20
10.13391705377006
 10
12.30582390337524
 20
10.14934670948092
 10
12.38217824806111
 20
10.16292941593234
 10
12.46157322435912
 20
10.17516823632621
 10
12.54065408417917
 20
10.18547666095797
 10
12.61933996388651
 20
10.19389204207166
 10
12.69754999984639
 20
10.20045093718274
 10
12.75982652216491
 20
10.20439517520968
  0
ARC
  5
E4
330
1F
100
AcDbEntity
  8
0
  6
CONTINUOUS
 62
     7
100
AcDbCircle
 10
12.73593102101011
 20
10.59321593974472
 30
0.0
 40
0.3898295516028554
100
AcDbArc
 50
273.5142799892116
 51
310.0867251249202
  0
ARC
  5
E5
330
1F
100
AcDbEntity
  8
0
  6
CONTINUOUS
 62
     7
100
AcDbCircle
 10
12.7596316647113
 20
6.987144900754777
 30
0.0
 40
3.324301198081697
100
AcDbArc
 50
98.33392437641665
 51
120.1636040300436
  0
ARC
  5
E6
330
1F
100
AcDbEntity
  8
0
  6
CONTINUOUS
 62
     7
100
AcDbCircle
 10
5.705628879315531
 20
6.987127417365382
 30
0.0
 40
3.324319303693305
100
AcDbArc
 50
59.83646635669101
 51
81.66602436918099
  0
ARC
  5
E7
330
1F
100
AcDbEntity
  8
0
  6
CONTINUOUS
 62
     7
100
AcDbCircle
 10
6.226853905655769
 20
12.33995962031079
 30
0.0
 40
0.9024562864961701
100
AcDbArc
 50
113.2632109022206
 51
141.1448853394875
  0
ARC
  5
E8
330
1F
100
AcDbEntity
  8
0
  6
CONTINUOUS
 62
     7
100
AcDbCircle
 10
12.24327250810452
 20
12.34634929004116
 30
0.0
 40
0.8946685981202259
100
AcDbArc
 50
38.73201930720711
 51
66.86112705329032
  0
ARC
  5
E9
330
1F
100
AcDbEntity
  8
0
  6
CONTINUOUS
 62
     7
100
AcDbCircle
 10
10.64900319764074
 20
12.98387019313065
 30
0.0
 40
1.582467256322488
100
AcDbArc
 50
45.67829859599005
 51
72.37255478013825
  0
ARC
  5
EA
330
1F
100
AcDbEntity
  8
0
  6
CONTINUOUS
 62
     7
100
AcDbCircle
 10
9.232637473434298
 20
8.568082851710029
 30
0.0
 40
6.219843023961427
100
AcDbArc
 50
72.25608786001437
 51
107.7439976025249
  0
ARC
  5
EB
330
1F
100
AcDbEntity
  8
0
  6
CONTINUOUS
 62
     7
100
AcDbCircle
 10
7.814318882437482
 20
12.98710008719053
 30
0.0
 40
1.578800558014856
100
AcDbArc
 50
107.5957034576193
 51
134.3530503069114
  0
ARC
  5
EC
330
1F
100
AcDbEntity
  8
0
  6
CONTINUOUS
 62
     7
100
AcDbCircle
 10
8.260626820997591
 20
12.90772772952967
 30
0.0
 40
1.6336908873854
100
AcDbArc
 50
107.8192548393429
 51
137.0587556835584
  0
ARC
  5
ED
330
1F
100
AcDbEntity
  8
0
  6
CONTINUOUS
 62
     7
100
AcDbCircle
 10
10.20398600654697
 20
12.90666503448743
 30
0.0
 40
1.634902542881187
100
AcDbArc
 50
42.95326581350257
 51
72.17034572359437
  0
ARC
  5
EE
330
1F
100
AcDbEntity
  8
0
  6
CONTINUOUS
 62
     7
100
AcDbCircle
 10
9.232644484938914
 20
9.962736200841966
 30
0.0
 40
4.73491513056172
100
AcDbArc
 50
71.88850866868145
 51
108.1117823633905
  0
ARC
  5
EF
330
1F
100
AcDbEntity
  8
0
  6
CONTINUOUS
 62
     7
100
AcDbCircle
 10
12.19218074038755
 20
10.87268926741398
 30
0.0
 40
0.6024623423970007
100
AcDbArc
 50
278.1703376469841
 51
298.1999301754466
  0
ARC
  5
F0
330
1F
100
AcDbEntity
  8
0
  6
CONTINUOUS
 62
     7
100
AcDbCircle
 10
6.273197206164477
 20
10.87302802006847
 30
0.0
 40
0.6028135536593097
100
AcDbArc
 50
241.8059073832682
 51
261.8237163497483
  0
CIRCLE
  5
F1
330
1F
100
AcDbEntity
  8
0
  6
CONTINUOUS
 62
     7
100
AcDbCircle
 10
9.232633055342603
 20
10.51454436801974
 30
0.0
 40
0.366517900710809
  0
CIRCLE
  5
F2
330
1F
100
AcDbEntity
  8
0
  6
CONTINUOUS
 62
     7
100
AcDbCircle
 10
9.232633055342608
 20
10.51454436801974
 30
0.0
 40
0.173333333333332
  0
LINE
  5
F3
330
1F
100
AcDbEntity
  8
0
  6
CONTINUOUS
 62
     7
100
AcDbLine
 10
4.465762203432084
 20
4.460945938713808
 30
0.0
 11
4.465762203432086
 21
4.227612604387063
 31
0.0
  0
LWPOLYLINE
  5
F4
330
1F
100
AcDbEntity
  8
0
  6
CONTINUOUS
 62
     7
100
AcDbPolyline
 90
       51
 70
   128
 43
0.0
 10
5.390691186484668
 20
3.325979227510563
 10
5.393174713350309
 20
3.309024984327427
 10
5.399567510184619
 20
3.265319282499424
 10
5.405416712658579
 20
3.225273007837406
 10
5.410893982149138
 20
3.187719498760969
 10
5.416001702842091
 20
3.152660046704085
 10
5.420740669466033
 20
3.120096141782871
 10
5.42511247147816
 20
3.090028678067
 10
5.429118698335663
 20
3.062458946990441
 10
5.432761734224335
 20
3.037387544599644
 10
5.435781702892955
 20
3.016601020780674
 10
5.438525106009817
 20
2.997732971794875
 10
5.44131857702829
 20
2.978512361335229
 10
5.444261457023002
 20
2.958258305676253
 10
5.447352156536755
 20
2.936970705476872
 10
5.450590675569552
 20
2.91464946139601
 10
5.456266627209363
 20
2.875488216367832
 10
5.462343122062066
 20
2.833502009200525
 10
5.46881698121327
 20
2.788690740553013
 10
5.475685820477186
 20
2.741054708448521
 10
5.482945666210831
 20
2.690594608274571
 10
5.490594134228408
 20
2.637311632124058
 10
5.498623277243952
 20
2.581234390226475
 10
5.505915706850074
 20
2.530068769740533
 10
5.512860840059302
 20
2.481032227165969
 10
5.519457087414445
 20
2.434126948006423
 10
5.525703654186908
 20
2.38935452171909
 10
5.531602924562477
 20
2.346716140396865
 10
5.537155693269752
 20
2.306211804039748
 10
5.543052579459533
 20
2.262774124431085
 10
5.548515543835347
 20
2.222091371503941
 10
5.553554917868956
 20
2.184163545258315
 10
5.558286731935526
 20
2.148323073672723
 10
5.563117887076722
 20
2.111966028499078
 10
5.56807540406484
 20
2.074826374339532
 10
5.569966063397116
 20
2.060696894613377
 10
5.571872617301331
 20
2.046456748930088
 10
5.573796655234681
 20
2.032106334653965
 10
5.575737382468568
 20
2.01764505573856
 10
5.577694799002991
 20
2.003072912183872
 10
5.579668904837952
 20
1.988390102672052
 10
5.581628705558169
 20
1.97371841936059
 10
5.583538438376772
 20
1.9591866082822
 10
5.585398898022361
 20
1.944795066801182
 10
5.587213263409324
 20
1.930544192281834
 10
5.58898709763784
 20
1.916434978134902
 10
5.590725963808088
 20
1.902467821724684
 10
5.592439398663231
 20
1.888644113826227
 10
5.59413773367503
 20
1.874964847850274
 10
5.595835273958233
 20
1.861431017207574
 10
5.597544735170393
 20
1.848044012673171
  0
ARC
  5
F5
330
1F
100
AcDbEntity
  8
0
  6
CONTINUOUS
 62
     7
100
AcDbCircle
 10
-252.3419779431629
 20
-34.49595841611964
 30
0.0
 40
260.493089133778
100
AcDbArc
 50
8.40052728974083
 51
8.548983404281257
  0
LINE
  5
F6
330
1F
100
AcDbEntity
  8
0
  6
CONTINUOUS
 62
     7
100
AcDbLine
 10
5.656996792055164
 20
1.361054395325454
 30
0.0
 11
6.288662975526842
 21
1.348421190865316
 31
0.0
  0
LINE
  5
F7
330
1F
100
AcDbEntity
  8
0
  6
CONTINUOUS
 62
     7
100
AcDbLine
 10
7.036582058168444
 20
1.348421190865324
 30
0.0
 11
10.86515329827566
 21
1.424992496458219
 31
0.0
  0
LWPOLYLINE
  5
F8
330
1F
100
AcDbEntity
  8
0
  6
CONTINUOUS
 62
     7
100
AcDbPolyline
 90
        3
 70
   128
 43
0.0
 10
5.358518188692102
 20
3.549156998284132
 10
5.376800920066209
 20
3.421469444719425
 10
5.39162181367176
 20
3.319947932846815
  0
LWPOLYLINE
  5
F9
330
1F
100
AcDbEntity
  8
0
  6
CONTINUOUS
 62
     7
100
AcDbPolyline
 90
       11
 70
   128
 43
0.0
 10
10.86525820245046
 20
1.424989913590279
 10
10.86961331516205
 20
1.55433358221007
 10
10.87624929894704
 20
1.691758647250659
 10
10.88441831419566
 20
1.828084602641589
 10
10.89367888917226
 20
1.963289990710742
 10
10.9035911415984
 20
2.097286795265999
 10
10.91371995756723
 20
2.229802424398588
 10
10.92538538127837
 20
2.384035204537239
 10
10.93621395577687
 20
2.536501104322599
 10
10.94617587874033
 20
2.687853589343554
 10
10.95486265966989
 20
2.826772048758991
  0
LINE
  5
FA
330
1F
100
AcDbEntity
  8
0
  6
CONTINUOUS
 62
     7
100
AcDbLine
 10
13.57671342839497
 20
2.879161352602198
 30
0.0
 11
13.84403082281049
 21
4.227612604387162
 31
0.0
  0
ARC
  5
FB
330
1F
100
AcDbEntity
  8
0
  6
CONTINUOUS
 62
     7
100
AcDbCircle
 10
6.66262251684764
 20
1.800451885545435
 30
0.0
 40
0.5866666666666665
100
AcDbArc
 50
287.1847959010889
 51
309.6005648414025
  0
ARC
  5
FC
330
1F
100
AcDbEntity
  8
0
  6
CONTINUOUS
 62
     7
100
AcDbCircle
 10
6.66262251684764
 20
1.800451885545435
 30
0.0
 40
0.5866666666666668
100
AcDbArc
 50
230.3994351586002
 51
252.8152040989138
  0
LINE
  5
FD
330
1F
100
AcDbEntity
  8
0
  6
CONTINUOUS
 62
     7
100
AcDbLine
 10
5.597540761527406
 20
1.848074212359857
 30
0.0
 11
5.598445162670801
 21
1.840643301295708
 31
0.0
  0
LINE
  5
FE
330
1F
100
AcDbEntity
  8
0
  6
CONTINUOUS
 62
     7
100
AcDbLine
 10
5.598445162670801
 20
1.840643301295708
 30
0.0
 11
5.656923677024239
 21
1.361055587418349
 31
0.0
  0
LWPOLYLINE
  5
FF
330
1F
100
AcDbEntity
  8
0
  6
CONTINUOUS
 62
     7
100
AcDbPolyline
 90
        3
 70
   128
 43
0.0
 10
5.356002872682581
 20
3.561856264558897
 10
5.356561566886276
 20
3.558069581476317
 10
5.356678391990036
 20
3.557280912684864
  0
LINE
  5
100
330
1F
100
AcDbEntity
  8
0
  6
CONTINUOUS
 62
     7
100
AcDbLine
 10
7.92488835801379
 20
4.460945938713869
 30
0.0
 11
14.99595585018094
 21
4.460945938713918
 31
0.0
  0
LINE
  5
101
330
1F
100
AcDbEntity
  8
0
  6
CONTINUOUS
 62
     7
100
AcDbLine
 10
14.99595585018094
 20
4.227612604387174
 30
0.0
 11
14.99595585018094
 21
4.460945938713918
 31
0.0
  0
LINE
  5
102
330
1F
100
AcDbEntity
  8
0
  6
CONTINUOUS
 62
     7
100
AcDbLine
 10
14.99595585018094
 20
4.227612604387174
 30
0.0
 11
7.924888358013792
 21
4.227612604387124
 31
0.0
  0
LINE
  5
103
330
1F
100
AcDbEntity
  8
0
  6
CONTINUOUS
 62
     7
100
AcDbLine
 10
7.924888358013792
 20
4.227612604387124
 30
0.0
 11
7.92488835801379
 21
4.460945938713869
 31
0.0
  0
LINE
  5
104
330
1F
100
AcDbEntity
  8
0
  6
CONTINUOUS
 62
     7
100
AcDbLine
 10
7.019791032370886
 20
4.460945938713855
 30
0.0
 11
7.92488835801379
 21
4.460945938713869
 31
0.0
  0
LINE
  5
105
330
1F
100
AcDbEntity
  8
0
  6
CONTINUOUS
 62
     7
100
AcDbLine
 10
7.924888358013792
 20
4.227612604387124
 30
0.0
 11
7.019791032370889
 21
4.227612604387111
 31
0.0
  0
LINE
  5
106
330
1F
100
AcDbEntity
  8
0
  6
CONTINUOUS
 62
     7
100
AcDbLine
 10
4.465762203432084
 20
4.460945938713808
 30
0.0
 11
7.019791032370886
 21
4.460945938713855
 31
0.0
  0
LINE
  5
107
330
1F
100
AcDbEntity
  8
0
  6
CONTINUOUS
 62
     7
100
AcDbLine
 10
7.019791032370889
 20
4.227612604387111
 30
0.0
 11
4.465762203432086
 21
4.227612604387063
 31
0.0
  0
LWPOLYLINE
  5
108
330
1F
100
AcDbEntity
  8
0
  6
CONTINUOUS
 62
     7
100
AcDbPolyline
 90
       42
 70
   128
 43
0.0
 10
5.356323148307175
 20
3.559998685804478
 10
5.358771707114548
 20
3.547901426441939
 10
5.363363648948045
 20
3.53353650836892
 10
5.369959101574591
 20
3.517652367241653
 10
5.37590367148019
 20
3.505378479448431
 10
5.382876620190314
 20
3.492343042977128
 10
5.390889868633917
 20
3.478535328991684
 10
5.399935469525031
 20
3.463979278691087
 10
5.410167600211472
 20
3.44845296411462
 10
5.421460693574917
 20
3.432174736944312
 10
5.433828260001511
 20
3.415132477569058
 10
5.447254404919319
 20
3.397357875791664
 10
5.462049867209765
 20
3.378466580994403
 10
5.477939670778288
 20
3.358837182012673
 10
5.494941299654019
 20
3.338456168460325
 10
5.513026938336067
 20
3.317363376108285
 10
5.528467720247282
 20
3.29976421066868
 10
5.544615015881233
 20
3.281711950587707
 10
5.572894638277068
 20
3.250842605717459
 10
5.60306412527658
 20
3.218802426941671
 10
5.635170365866994
 20
3.185556644884228
 10
5.669117992616667
 20
3.151216620889783
 10
5.694484934704477
 20
3.126032466379285
 10
5.720763430493053
 20
3.100326572544854
 10
5.747969374554332
 20
3.07408672043431
 10
5.776061441001272
 20
3.047355229345443
 10
5.805378184216198
 20
3.019819274234257
 10
5.835572307802216
 20
2.991811747041825
 10
5.866659706331271
 20
2.963320428815964
 10
5.898595875001925
 20
2.93438833424199
 10
5.945646192130424
 20
2.89233248898137
 10
5.994343186911918
 20
2.849453801599628
 10
6.044727390504855
 20
2.805718198108163
 10
6.096661314861952
 20
2.761242404269663
 10
6.135434533652643
 20
2.728405410734303
 10
6.174982612825412
 20
2.695212577469636
 10
6.215316678580622
 20
2.661651387500256
 10
6.256385868288061
 20
2.627762173302462
 10
6.298264091707251
 20
2.593481157906345
 10
6.340838497377415
 20
2.558897152232618
 10
6.384119416770321
 20
2.523998434034479
 10
6.42805678198435
 20
2.48882076609879
  0
ARC
  5
109
330
1F
100
AcDbEntity
  8
0
  6
CONTINUOUS
 62
     7
100
AcDbCircle
 10
12.05785222881815
 20
-1.605710204516555
 30
0.0
 40
5.313323024387024
100
AcDbArc
 50
118.7718471514006
 51
121.3319416203526
  0
ARC
  5
10A
330
1F
100
AcDbEntity
  8
0
  6
CONTINUOUS
 62
     7
100
AcDbCircle
 10
12.05783945906042
 20
-1.605652294658812
 30
0.0
 40
5.313268220622206
100
AcDbArc
 50
80.79949731049984
 51
118.7720145685475
  0
LINE
  5
10B
330
1F
100
AcDbEntity
  8
0
  6
CONTINUOUS
 62
     7
100
AcDbLine
 10
6.662622516847643
 20
1.348421190865321
 30
0.0
 11
6.288662975526842
 21
1.348421190865316
 31
0.0
  0
LINE
  5
10C
330
1F
100
AcDbEntity
  8
0
  6
CONTINUOUS
 62
     7
100
AcDbLine
 10
7.036582058168444
 20
1.348421190865324
 30
0.0
 11
6.662622516847643
 21
1.348421190865321
 31
0.0
  0
LWPOLYLINE
  5
10D
330
1F
100
AcDbEntity
  8
0
  6
CONTINUOUS
 62
     7
100
AcDbPolyline
 90
        5
 70
   128
 43
0.0
 10
5.660456245637927
 20
1.361466660785151
 10
5.658703869081531
 20
1.361264004992914
 10
5.657545949515694
 20
1.361128901131423
 10
5.656982486940417
 20
1.361062938657871
 10
5.656996792055164
 20
1.361064528115065
  0
LWPOLYLINE
  5
10E
330
1F
100
AcDbEntity
  8
0
  6
CONTINUOUS
 62
     7
100
AcDbPolyline
 90
       21
 70
   128
 43
0.0
 10
11.76873487780191
 20
2.843064183679761
 10
11.68462755828795
 20
2.841382041263124
 10
11.60117251226999
 20
2.839712912527263
 10
11.51843013912139
 20
2.838058088906148
 10
11.43646024216907
 20
2.8364186631516
 10
11.35532322078643
 20
2.83479592669759
 10
11.27507748752532
 20
2.833191071637012
 10
11.19578185230193
 20
2.831605091380612
 10
11.11749353557524
 20
2.830039376703437
 10
11.04026975780425
 20
2.828494921016231
 10
10.96416694471933
 20
2.826972817070816
 10
10.88923993259368
 20
2.825474256960088
 10
10.81554316033619
 20
2.824000333435866
 10
10.74313106685576
 20
2.822552139249973
 10
10.6720553095112
 20
2.821130568472079
 10
10.6023683403899
 20
2.819736813195081
 10
10.53412022739348
 20
2.818371866829724
 10
10.46736103842355
 20
2.817036722786755
 10
10.40213925192453
 20
2.815732275135844
 10
10.33850215424793
 20
2.814459517287741
 10
10.27649623701669
 20
2.813219442653188
  0
LWPOLYLINE
  5
10F
330
1F
100
AcDbEntity
  8
0
  6
CONTINUOUS
 62
     7
100
AcDbPolyline
 90
       13
 70
   128
 43
0.0
 10
12.89532127529082
 20
2.865595931497765
 10
12.80537667423186
 20
2.863797063318442
 10
12.71476787874795
 20
2.861984883435121
 10
12.62351853201486
 20
2.860159888553172
 10
12.53142617692249
 20
2.858318005688537
 10
12.43870757569569
 20
2.8564636058485
 10
12.34539113988178
 20
2.854597285079506
 10
12.25078625032998
 20
2.852705234972185
 10
12.15559842735228
 20
2.850801462618058
 10
12.05986224164265
 20
2.848886762745722
 10
11.96332695632872
 20
2.846956068960372
 10
11.86627112378376
 20
2.845014944362187
 10
11.76873487780191
 20
2.843064183679761
  0
LWPOLYLINE
  5
110
330
1F
100
AcDbEntity
  8
0
  6
CONTINUOUS
 62
     7
100
AcDbPolyline
 90
       25
 70
   128
 43
0.0
 10
12.89532127529082
 20
2.865595931497765
 10
12.94638020346261
 20
2.866617058403842
 10
12.99597126791574
 20
2.867608879692905
 10
13.04433586746154
 20
2.868576163736535
 10
13.09104186842538
 20
2.869510367202315
 10
13.13696446567473
 20
2.87042877543723
 10
13.18098706553079
 20
2.871309235381637
 10
13.22333000649708
 20
2.872156118042822
 10
13.26358539412118
 20
2.872961178111588
 10
13.30037636110879
 20
2.87369699745134
 10
13.33509179502425
 20
2.874391292221899
 10
13.36788905212976
 20
2.875047241337652
 10
13.39846434741912
 20
2.875658784993048
 10
13.42735283126133
 20
2.876236552683071
 10
13.45381341923969
 20
2.876765742587601
 10
13.47796313514012
 20
2.877248738892432
 10
13.4995557124386
 20
2.877680574543829
 10
13.51792228767969
 20
2.878047937837795
 10
13.53384060213663
 20
2.87836632598197
 10
13.54748907237945
 20
2.878639315255042
 10
13.55855924437143
 20
2.878860647169307
 10
13.5670251900921
 20
2.879030023701544
 10
13.57286068349776
 20
2.879146749464228
 10
13.57609165260888
 20
2.879211321162735
 10
13.57642752478219
 20
2.87921807635581
  0
LINE
  5
111
330
1F
100
AcDbEntity
  8
0
  6
CONTINUOUS
 62
     7
100
AcDbLine
 10
6.489289030926421
 20
1.239975904114525
 30
0.0
 11
6.835956002768869
 21
1.239975904114528
 31
0.0
  0
LWPOLYLINE
  5
112
330
1F
100
AcDbEntity
  8
0
  6
CONTINUOUS
 62
     7
100
AcDbPolyline
 90
        3
 70
   128
 43
0.0
 10
5.35861435085234
 20
3.548482273705269
 10
5.356896942354212
 20
3.555830433654254
 10
5.356789653993616
 20
3.557297105280027
  0
LINE
  5
113
330
1F
100
AcDbEntity
  8
0
  6
CONTINUOUS
 62
     7
100
AcDbLine
 10
5.660456245637927
 20
1.361466660785151
 30
0.0
 11
5.597552682456361
 21
1.848106994914483
 31
0.0
  0
ENDSEC
  0
SECTION
  2
OBJECTS
  0
DICTIONARY
  5
C
330
0
100
AcDbDictionary
  3
ACAD_GROUP
350
D
  3
ACAD_LAYOUT
350
1A
  3
ACAD_MLINESTYLE
350
17
  3
ACAD_PLOTSETTINGS
350
19
  3
ACAD_PLOTSTYLENAME
350
E
  3
ACDBHEADERROUNDTRIPXREC
350
15A
  3
ACDBVARIABLEDICTIONARY
350
154
  0
DICTIONARY
  5
11C
330
1F
100
AcDbDictionary
280
     1
  3
ACAD_LAYOUTSELFREF
360
17C
  0
DICTIONARY
  5
11E
330
1B
100
AcDbDictionary
280
     1
  3
ACAD_LAYOUTSELFREF
360
17B
  0
DICTIONARY
  5
D
102
{ACAD_REACTORS
330
C
102
}
330
C
100
AcDbDictionary
  0
DICTIONARY
  5
1A
102
{ACAD_REACTORS
330
C
102
}
330
C
100
AcDbDictionary
  0
DICTIONARY
  5
17
102
{ACAD_REACTORS
330
C
102
}
330
C
100
AcDbDictionary
  3
STANDARD
350
18
  0
DICTIONARY
  5
19
102
{ACAD_REACTORS
330
C
102
}
330
C
100
AcDbDictionary
  0
ACDBDICTIONARYWDFLT
  5
E
102
{ACAD_REACTORS
330
C
102
}
330
C
100
AcDbDictionary
281
     1
  3
Normal
350
F
100
AcDbDictionaryWithDefault
340
F
  0
DICTIONARY
  5
15A
102
{ACAD_REACTORS
330
C
102
}
330
C
100
AcDbDictionary
  3
CEPSNTYPE
350
164
  3
DIMSTYLEDATA
350
168
  3
FINGERPRINTGUID
350
165
  3
HYPERLINKBASE
350
15D
  3
INSUNITS
350
163
  3
LAYOUTDICT
350
15F
  3
LWETCUNION
350
162
  3
PLOTSETDICT
350
160
  3
PLOTSTYLNAMDICT
350
161
  3
PSVPSCALE
350
167
  3
PUCSBASE
350
16B
  3
PUCSORGBACK
350
171
  3
PUCSORGBOTTOM
350
16D
  3
PUCSORGFRONT
350
170
  3
PUCSORGLEFT
350
16E
  3
PUCSORGRIGHT
350
16F
  3
PUCSORGTOP
350
16C
  3
PUCSORTHOREF
350
169
  3
PUCSORTHOVIEW
350
16A
  3
STYLESHEET
350
15E
  3
TSTACKALIGN
350
15B
  3
TSTACKSIZE
350
15C
  3
UCSBASE
350
174
  3
UCSORGBACK
350
17A
  3
UCSORGBOTTOM
350
176
  3
UCSORGFRONT
350
179
  3
UCSORGLEFT
350
177
  3
UCSORGRIGHT
350
178
  3
UCSORGTOP
350
175
  3
UCSORTHOREF
350
172
  3
UCSORTHOVIEW
350
173
  3
VERSIONGUID
350
166
  0
DICTIONARY
  5
154
102
{ACAD_REACTORS
330
C
102
}
330
C
100
AcDbDictionary
  3
DIMASSOC
350
155
  0
XRECORD
  5
17C
102
{ACAD_REACTORS
330
11C
102
}
330
11C
100
AcDbXrecord
340
1F
  0
XRECORD
  5
17B
102
{ACAD_REACTORS
330
11E
102
}
330
11E
100
AcDbXrecord
340
1B
  0
MLINESTYLE
  5
18
102
{ACAD_REACTORS
330
17
102
}
330
17
100
AcDbMlineStyle
  2
STANDARD
 70
     0
  3

 62
   256
 51
90.0
 52
90.0
 71
     2
 49
0.5
 62
   256
  6
BYLAYER
 49
-0.5
 62
   256
  6
BYLAYER
  0
ACDBPLACEHOLDER
  5
F
102
{ACAD_REACTORS
330
E
102
}
330
E
100
AcDbPlaceHolder
280
     0
  0
XRECORD
  5
164
102
{ACAD_REACTORS
330
15A
102
}
330
15A
100
AcDbXrecord
 90
        0
  0
XRECORD
  5
168
102
{ACAD_REACTORS
330
15A
102
}
330
15A
100
AcDbXrecord
1000
DSTYLE
1002
{
1070
   278
 70
    44
1002
}
  0
XRECORD
  5
165
102
{ACAD_REACTORS
330
15A
102
}
330
15A
100
AcDbXrecord
  1
{166B75F6-8E63-41BB-B87E-A6631B3CBE3B}
  0
XRECORD
  5
15D
102
{ACAD_REACTORS
330
15A
102
}
330
15A
100
AcDbXrecord
  1

  0
XRECORD
  5
163
102
{ACAD_REACTORS
330
15A
102
}
330
15A
100
AcDbXrecord
 90
        4
  0
XRECORD
  5
15F
102
{ACAD_REACTORS
330
15A
102
}
330
15A
100
AcDbXrecord
340
1A
  0
XRECORD
  5
162
102
{ACAD_REACTORS
330
15A
102
}
330
15A
100
AcDbXrecord
 90
    10781
  0
XRECORD
  5
160
102
{ACAD_REACTORS
330
15A
102
}
330
15A
100
AcDbXrecord
340
19
  0
XRECORD
  5
161
102
{ACAD_REACTORS
330
15A
102
}
330
15A
100
AcDbXrecord
340
E
  0
XRECORD
  5
167
102
{ACAD_REACTORS
330
15A
102
}
330
15A
100
AcDbXrecord
 40
0.0
  0
XRECORD
  5
16B
102
{ACAD_REACTORS
330
15A
102
}
330
15A
100
AcDbXrecord
340
0
  0
XRECORD
  5
171
102
{ACAD_REACTORS
330
15A
102
}
330
15A
100
AcDbXrecord
 10
0.0
 20
0.0
 30
0.0
  0
XRECORD
  5
16D
102
{ACAD_REACTORS
330
15A
102
}
330
15A
100
AcDbXrecord
 10
0.0
 20
0.0
 30
0.0
  0
XRECORD
  5
170
102
{ACAD_REACTORS
330
15A
102
}
330
15A
100
AcDbXrecord
 10
0.0
 20
0.0
 30
0.0
  0
XRECORD
  5
16E
102
{ACAD_REACTORS
330
15A
102
}
330
15A
100
AcDbXrecord
 10
0.0
 20
0.0
 30
0.0
  0
XRECORD
  5
16F
102
{ACAD_REACTORS
330
15A
102
}
330
15A
100
AcDbXrecord
 10
0.0
 20
0.0
 30
0.0
  0
XRECORD
  5
16C
102
{ACAD_REACTORS
330
15A
102
}
330
15A
100
AcDbXrecord
 10
0.0
 20
0.0
 30
0.0
  0
XRECORD
  5
169
102
{ACAD_REACTORS
330
15A
102
}
330
15A
100
AcDbXrecord
340
0
  0
XRECORD
  5
16A
102
{ACAD_REACTORS
330
15A
102
}
330
15A
100
AcDbXrecord
 70
     0
  0
XRECORD
  5
15E
102
{ACAD_REACTORS
330
15A
102
}
330
15A
100
AcDbXrecord
  1

  0
XRECORD
  5
15B
102
{ACAD_REACTORS
330
15A
102
}
330
15A
100
AcDbXrecord
 90
        1
  0
XRECORD
  5
15C
102
{ACAD_REACTORS
330
15A
102
}
330
15A
100
AcDbXrecord
 90
       70
  0
XRECORD
  5
174
102
{ACAD_REACTORS
330
15A
102
}
330
15A
100
AcDbXrecord
340
0
  0
XRECORD
  5
17A
102
{ACAD_REACTORS
330
15A
102
}
330
15A
100
AcDbXrecord
 10
0.0
 20
0.0
 30
0.0
  0
XRECORD
  5
176
102
{ACAD_REACTORS
330
15A
102
}
330
15A
100
AcDbXrecord
 10
0.0
 20
0.0
 30
0.0
  0
XRECORD
  5
179
102
{ACAD_REACTORS
330
15A
102
}
330
15A
100
AcDbXrecord
 10
0.0
 20
0.0
 30
0.0
  0
XRECORD
  5
177
102
{ACAD_REACTORS
330
15A
102
}
330
15A
100
AcDbXrecord
 10
0.0
 20
0.0
 30
0.0
  0
XRECORD
  5
178
102
{ACAD_REACTORS
330
15A
102
}
330
15A
100
AcDbXrecord
 10
0.0
 20
0.0
 30
0.0
  0
XRECORD
  5
175
102
{ACAD_REACTORS
330
15A
102
}
330
15A
100
AcDbXrecord
 10
0.0
 20
0.0
 30
0.0
  0
XRECORD
  5
172
102
{ACAD_REACTORS
330
15A
102
}
330
15A
100
AcDbXrecord
340
0
  0
XRECORD
  5
173
102
{ACAD_REACTORS
330
15A
102
}
330
15A
100
AcDbXrecord
 70
     0
  0
XRECORD
  5
166
102
{ACAD_REACTORS
330
15A
102
}
330
15A
100
AcDbXrecord
  1
{9410C11A-2279-4427-9457-640C91C0583E}
  0
DICTIONARYVAR
  5
155
102
{ACAD_REACTORS
330
154
102
}
330
154
100
DictionaryVariables
280
     0
  1
1
  0
ENDSEC
  0
EOF
