  0
SECTION
  2
HEADER
  9
$ACADVER
  1
AC1014
  9
$ACADMAINTVER
 70
     9
  9
$DWGCODEPAGE
  3
ANSI_1250
  9
$INSBASE
 10
0.0
 20
0.0
 30
0.0
  9
$EXTMIN
 10
4.281701734291516
 20
3.754852348187533
 30
-0.0015258207003583
  9
$EXTMAX
 10
14.28351750725824
 20
16.24058537050219
 30
0.0000000349246037
  9
$LIMMIN
 10
0.0
 20
0.0
  9
$LIMMAX
 10
0.0
 20
0.0
  9
$ORTHOMODE
 70
     0
  9
$REGENMODE
 70
     1
  9
$FILLMODE
 70
     1
  9
$QTEXTMODE
 70
     0
  9
$MIRRTEXT
 70
     1
  9
$DRAGMODE
 70
     2
  9
$LTSCALE
 40
1.0
  9
$OSMODE
 70
  1007
  9
$ATTMODE
 70
     1
  9
$TEXTSIZE
 40
2.5
  9
$TRACEWID
 40
1.0
  9
$TEXTSTYLE
  7
STANDARD
  9
$CLAYER
  8
0
  9
$CELTYPE
  6
BYLAYER
  9
$CECOLOR
 62
   256
  9
$CELTSCALE
 40
1.0
  9
$DELOBJ
 70
     1
  9
$DISPSILH
 70
     0
  9
$DIMSCALE
 40
1.0
  9
$DIMASZ
 40
0.3
  9
$DIMEXO
 40
0.1
  9
$DIMDLI
 40
3.75
  9
$DIMRND
 40
0.0
  9
$DIMDLE
 40
0.0
  9
$DIMEXE
 40
0.1
  9
$DIMTP
 40
0.0
  9
$DIMTM
 40
0.0
  9
$DIMTXT
 40
0.2822222222222222
  9
$DIMCEN
 40
2.5
  9
$DIMTSZ
 40
0.0
  9
$DIMTOL
 70
     0
  9
$DIMLIM
 70
     0
  9
$DIMTIH
 70
     1
  9
$DIMTOH
 70
     1
  9
$DIMSE1
 70
     0
  9
$DIMSE2
 70
     0
  9
$DIMTAD
 70
     1
  9
$DIMZIN
 70
     0
  9
$DIMBLK
  1

  9
$DIMASO
 70
     1
  9
$DIMSHO
 70
     1
  9
$DIMPOST
  1

  9
$DIMAPOST
  1

  9
$DIMALT
 70
     0
  9
$DIMALTD
 70
     3
  9
$DIMALTF
 40
0.3937007874015748
  9
$DIMLFAC
 40
15.0
  9
$DIMTOFL
 70
     1
  9
$DIMTVP
 40
0.0
  9
$DIMTIX
 70
     0
  9
$DIMSOXD
 70
     0
  9
$DIMSAH
 70
     0
  9
$DIMBLK1
  1

  9
$DIMBLK2
  1

  9
$DIMSTYLE
  2
ISO-25
  9
$DIMCLRD
 70
     0
  9
$DIMCLRE
 70
     0
  9
$DIMCLRT
 70
     0
  9
$DIMTFAC
 40
1.0
  9
$DIMGAP
 40
0.1524
  9
$DIMJUST
 70
     0
  9
$DIMSD1
 70
     0
  9
$DIMSD2
 70
     0
  9
$DIMTOLJ
 70
     0
  9
$DIMTZIN
 70
     0
  9
$DIMALTZ
 70
     0
  9
$DIMALTTZ
 70
     0
  9
$DIMFIT
 70
     3
  9
$DIMUPT
 70
     0
  9
$DIMUNIT
 70
     2
  9
$DIMDEC
 70
     2
  9
$DIMTDEC
 70
     2
  9
$DIMALTU
 70
     2
  9
$DIMALTTD
 70
     3
  9
$DIMTXSTY
  7
STANDARD
  9
$DIMAUNIT
 70
     0
  9
$LUNITS
 70
     2
  9
$LUPREC
 70
     2
  9
$SKETCHINC
 40
1.0
  9
$FILLETRAD
 40
10.0
  9
$AUNITS
 70
     0
  9
$AUPREC
 70
     0
  9
$MENU
  1
.
  9
$ELEVATION
 40
0.0
  9
$PELEVATION
 40
0.0
  9
$THICKNESS
 40
0.0
  9
$LIMCHECK
 70
     0
  9
$BLIPMODE
 70
     0
  9
$CHAMFERA
 40
10.0
  9
$CHAMFERB
 40
10.0
  9
$CHAMFERC
 40
20.0
  9
$CHAMFERD
 40
0.0
  9
$SKPOLY
 70
     0
  9
$TDCREATE
 40
2454418.386268808
  9
$TDUPDATE
 40
2454420.423674583
  9
$TDINDWG
 40
0.0007545023
  9
$TDUSRTIMER
 40
0.0007545023
  9
$USRTIMER
 70
     1
  9
$ANGBASE
 50
0.0
  9
$ANGDIR
 70
     0
  9
$PDMODE
 70
     0
  9
$PDSIZE
 40
-1.0
  9
$PLINEWID
 40
0.0
  9
$COORDS
 70
     1
  9
$SPLFRAME
 70
     0
  9
$SPLINETYPE
 70
     6
  9
$SPLINESEGS
 70
     8
  9
$ATTDIA
 70
     0
  9
$ATTREQ
 70
     1
  9
$HANDLING
 70
 22529
  9
$HANDSEED
  5
2C5
  9
$SURFTAB1
 70
     6
  9
$SURFTAB2
 70
     6
  9
$SURFTYPE
 70
     6
  9
$SURFU
 70
     6
  9
$SURFV
 70
     6
  9
$UCSNAME
  2

  9
$UCSORG
 10
0.0
 20
0.0
 30
0.0
  9
$UCSXDIR
 10
1.0
 20
0.0
 30
0.0
  9
$UCSYDIR
 10
0.0
 20
1.0
 30
0.0
  9
$PUCSNAME
  2

  9
$PUCSORG
 10
0.0
 20
0.0
 30
0.0
  9
$PUCSXDIR
 10
1.0
 20
0.0
 30
0.0
  9
$PUCSYDIR
 10
0.0
 20
1.0
 30
0.0
  9
$USERI1
 70
     0
  9
$USERI2
 70
     0
  9
$USERI3
 70
     0
  9
$USERI4
 70
     0
  9
$USERI5
 70
     0
  9
$USERR1
 40
0.0
  9
$USERR2
 40
0.0
  9
$USERR3
 40
0.0
  9
$USERR4
 40
0.0
  9
$USERR5
 40
0.0
  9
$WORLDVIEW
 70
     1
  9
$SHADEDGE
 70
     3
  9
$SHADEDIF
 70
    70
  9
$TILEMODE
 70
     1
  9
$MAXACTVP
 70
    64
  9
$PINSBASE
 10
0.0
 20
0.0
 30
0.0
  9
$PLIMCHECK
 70
     0
  9
$PEXTMIN
 10
1.000000000000000E+20
 20
1.000000000000000E+20
 30
1.000000000000000E+20
  9
$PEXTMAX
 10
-1.000000000000000E+20
 20
-1.000000000000000E+20
 30
-1.000000000000000E+20
  9
$PLIMMIN
 10
0.0
 20
0.0
  9
$PLIMMAX
 10
420.0
 20
297.0
  9
$UNITMODE
 70
     0
  9
$VISRETAIN
 70
     1
  9
$PLINEGEN
 70
     0
  9
$PSLTSCALE
 70
     1
  9
$TREEDEPTH
 70
  3020
  9
$PICKSTYLE
 70
     1
  9
$CMLSTYLE
  2
STANDARD
  9
$CMLJUST
 70
     0
  9
$CMLSCALE
 40
20.0
  9
$PROXYGRAPHICS
 70
     1
  9
$MEASUREMENT
 70
     1
  0
ENDSEC
  0
SECTION
  2
CLASSES
  0
CLASS
  1
ACDBDICTIONARYWDFLT
  2
AcDbDictionaryWithDefault
  3
AutoCAD 2000
 90
        0
280
     0
281
     0
  0
CLASS
  1
ACDBPLACEHOLDER
  2
AcDbPlaceHolder
  3
AutoCAD 2000
 90
        0
280
     0
281
     0
  0
CLASS
  1
LAYOUT
  2
AcDbLayout
  3
AutoCAD 2000
 90
        0
280
     0
281
     0
  0
CLASS
  1
DICTIONARYVAR
  2
AcDbDictionaryVar
  3
AutoCAD 2000
 90
        0
280
     0
281
     0
  0
CLASS
  1
LONG_TRANSACTION
  2
AcDbLongTransaction
  3
AutoCAD 2000
 90
        0
280
     0
281
     0
  0
CLASS
  1
LWPOLYLINE
  2
AcDbPolyline
  3
AutoCAD 2000
 90
        0
280
     0
281
     1
  0
CLASS
  1
HATCH
  2
AcDbHatch
  3
AutoCAD 2000
 90
        0
280
     0
281
     1
  0
CLASS
  1
XRECORD
  2
AcDbXrecord
  3
AutoCAD 2000
 90
        0
280
     0
281
     0
  0
ENDSEC
  0
SECTION
  2
TABLES
  0
TABLE
  2
VPORT
  5
8
330
0
100
AcDbSymbolTable
 70
     3
  0
VPORT
  5
29D
330
8
100
AcDbSymbolTableRecord
100
AcDbViewportTableRecord
  2
*ACTIVE
 70
     0
 10
0.0
 20
0.0
 11
1.0
 21
1.0
 12
9.282609620774881
 22
9.99771885934486
 13
0.0
 23
0.0
 14
10.0
 24
10.0
 15
10.0
 25
10.0
 16
0.0
 26
0.0
 36
1.0
 17
0.0
 27
0.0
 37
0.0
 40
12.60874517031775
 41
1.981907894736842
 42
50.0
 43
0.0
 44
0.0
 50
0.0
 51
0.0
 71
     0
 72
  2000
 73
     1
 74
     3
 75
     0
 76
     0
 77
     0
 78
     0
  0
ENDTAB
  0
TABLE
  2
LTYPE
  5
5
330
0
100
AcDbSymbolTable
 70
     6
  0
LTYPE
  5
14
330
5
100
AcDbSymbolTableRecord
100
AcDbLinetypeTableRecord
  2
BYBLOCK
 70
     0
  3

 72
    65
 73
     0
 40
0.0
  0
LTYPE
  5
15
330
5
100
AcDbSymbolTableRecord
100
AcDbLinetypeTableRecord
  2
BYLAYER
 70
     0
  3

 72
    65
 73
     0
 40
0.0
  0
LTYPE
  5
16
330
5
100
AcDbSymbolTableRecord
100
AcDbLinetypeTableRecord
  2
CONTINUOUS
 70
     0
  3
Solid line
 72
    65
 73
     0
 40
0.0
  0
ENDTAB
  0
TABLE
  2
LAYER
  5
2
330
0
100
AcDbSymbolTable
 70
     3
  0
LAYER
  5
10
330
2
100
AcDbSymbolTableRecord
100
AcDbLayerTableRecord
  2
0
 70
     0
 62
     7
  6
CONTINUOUS
  0
ENDTAB
  0
TABLE
  2
STYLE
  5
3
330
0
100
AcDbSymbolTable
 70
     4
  0
STYLE
  5
11
330
3
100
AcDbSymbolTableRecord
100
AcDbTextStyleTableRecord
  2
STANDARD
 70
     0
 40
0.0
 41
1.0
 50
0.0
 71
     0
 42
2.5
  3
ARIAL.TTF
  4

1001
ACAD
1000
Arial
1071
       34
  0
ENDTAB
  0
TABLE
  2
VIEW
  5
6
330
0
100
AcDbSymbolTable
 70
     0
  0
ENDTAB
  0
TABLE
  2
UCS
  5
7
330
0
100
AcDbSymbolTable
 70
     0
  0
ENDTAB
  0
TABLE
  2
APPID
  5
9
330
0
100
AcDbSymbolTable
 70
     1
  0
APPID
  5
12
330
9
100
AcDbSymbolTableRecord
100
AcDbRegAppTableRecord
  2
ACAD
 70
     0
  0
ENDTAB
  0
TABLE
  2
DIMSTYLE
  5
A
330
0
100
AcDbSymbolTable
 70
     7
  0
DIMSTYLE
105
27
330
A
100
AcDbSymbolTableRecord
100
AcDbDimStyleTableRecord
  2
ISO-25
 70
     0
  3

  4

  5

  6

  7

 40
1.0
 41
2.5
 42
0.625
 43
3.75
 44
1.25
 45
0.0
 46
0.0
 47
0.0
 48
0.0
140
2.5
141
2.5
142
0.0
143
0.03937007874016
144
1.0
145
0.0
146
1.0
147
0.625
 71
     0
 72
     0
 73
     0
 74
     0
 75
     0
 76
     0
 77
     1
 78
     8
170
     0
171
     3
172
     1
173
     0
174
     0
175
     0
176
     0
177
     0
178
     0
270
     2
271
     2
272
     2
273
     2
274
     3
340
11
275
     0
280
     0
281
     0
282
     0
283
     0
284
     8
285
     0
286
     0
287
     3
288
     0
  0
ENDTAB
  0
TABLE
  2
BLOCK_RECORD
  5
1
330
0
100
AcDbSymbolTable
 70
    27
  0
BLOCK_RECORD
  5
1F
102
{ACAD_XDICTIONARY
360
2C1
102
}
330
1
100
AcDbSymbolTableRecord
100
AcDbBlockTableRecord
  2
*MODEL_SPACE
  0
BLOCK_RECORD
  5
1B
102
{ACAD_XDICTIONARY
360
2BF
102
}
330
1
100
AcDbSymbolTableRecord
100
AcDbBlockTableRecord
  2
*PAPER_SPACE
  0
ENDTAB
  0
ENDSEC
  0
SECTION
  2
BLOCKS
  0
BLOCK
  5
20
330
1F
100
AcDbEntity
  8
0
100
AcDbBlockBegin
  2
*MODEL_SPACE
 70
     0
 10
0.0
 20
0.0
 30
0.0
  3
*MODEL_SPACE
  1

  0
ENDBLK
  5
21
330
1F
100
AcDbEntity
  8
0
100
AcDbBlockEnd
  0
BLOCK
  5
1C
330
1B
100
AcDbEntity
 67
     1
  8
0
100
AcDbBlockBegin
  2
*PAPER_SPACE
 70
     0
 10
0.0
 20
0.0
 30
0.0
  3
*PAPER_SPACE
  1

  0
ENDBLK
  5
1D
330
1B
100
AcDbEntity
 67
     1
  8
0
100
AcDbBlockEnd
  0
ENDSEC
  0
SECTION
  2
ENTITIES
  0
POINT
  5
D6
330
1F
100
AcDbEntity
  8
0
100
AcDbPoint
 10
4.283441460373984
 20
14.60783185242918
 30
0.0
  0
LINE
  5
D7
330
1F
100
AcDbEntity
  8
0
100
AcDbLine
 10
4.283441460373984
 20
12.9067649774485
 30
0.0
 11
11.10033030931451
 21
10.90676494764618
 31
0.0
  0
LWPOLYLINE
  5
D8
330
1F
100
AcDbEntity
  8
0
100
AcDbPolyline
 90
       21
 70
   128
 43
0.0
 10
11.06813227757114
 20
11.38072995669973
 10
11.02128282809554
 20
11.39005887833568
 10
10.97463941200871
 20
11.40039372769328
 10
10.92823401713667
 20
11.41172675616872
 10
10.88194316252369
 20
11.42415849692953
 10
10.83586479846933
 20
11.43737940318716
 10
10.78987077498732
 20
11.45089296825063
 10
9.248868661615238
 20
11.90300592111878
 10
7.707866486154979
 20
12.35511897332799
 10
6.531943436705059
 20
12.70012188282939
 10
5.692423737290488
 20
12.94642769622139
 10
5.656127687536663
 20
12.95699197379085
 10
5.619874553127076
 20
12.96770208405785
 10
5.583808577302084
 20
12.9790076943967
 10
5.530136581503337
 20
12.99774357008271
 10
5.477243022365358
 20
13.01857430067988
 10
5.434880809230592
 20
13.03703246839178
 10
5.393100337428833
 20
13.05685424136452
 10
5.351963993154948
 20
13.0780065886908
 10
5.311534957332399
 20
13.10045638012223
 10
5.271875616156047
 20
13.12417053508095
  0
ARC
  5
D9
330
1F
100
AcDbEntity
  8
0
100
AcDbCircle
 10
6.038856127829354
 20
14.36085001797211
 30
0.0
 40
1.455209692343544
100
AcDbArc
 50
204.6623898179285
 51
238.1930817203379
  0
ARC
  5
DA
330
1F
100
AcDbEntity
  8
0
100
AcDbCircle
 10
6.028645164830045
 20
14.35630937424533
 30
0.0
 40
1.444035479143532
100
AcDbArc
 50
150.9006718166918
 51
204.6677176510753
  0
LINE
  5
DB
330
1F
100
AcDbEntity
  8
0
100
AcDbLine
 10
4.283441460373984
 20
16.24009836045237
 30
0.0
 11
4.283441460373984
 21
12.9067649774485
 31
0.0
  0
ARC
  5
DC
330
1F
100
AcDbEntity
  8
0
100
AcDbCircle
 10
11.49891596316757
 20
13.57407014544862
 30
0.0
 40
2.21264210783171
100
AcDbArc
 50
330.102724774092
 51
29.87305158220509
  0
LINE
  5
DD
330
1F
100
AcDbEntity
  8
0
100
AcDbLine
 10
14.28344146037398
 20
10.90676494764618
 30
0.0
 11
14.28344146037398
 21
16.24009836045237
 31
0.0
  0
LWPOLYLINE
  5
DE
330
1F
100
AcDbEntity
  8
0
100
AcDbPolyline
 90
       75
 70
   128
 43
0.0
 10
5.644246892375734
 20
12.99659384615553
 10
5.65475121760665
 20
12.99218652970922
 10
5.665931856873617
 20
12.98773252295784
 10
5.678064183635498
 20
12.98313268350891
 10
5.690742091579224
 20
12.97854958303106
 10
5.703498280289755
 20
12.97414385604195
 10
5.716594215475505
 20
12.96981586344373
 10
5.730331496639038
 20
12.96547515518796
 10
5.744232889257854
 20
12.96128003127706
 10
5.757802482687419
 20
12.95737264878881
 10
5.771337505423016
 20
12.95365863370232
 10
5.785131212316936
 20
12.95006641077332
 10
5.798688884817546
 20
12.9467322759562
 10
5.811542030416911
 20
12.94376371629369
 10
5.823989864431804
 20
12.94108240134847
 10
5.836284713191773
 20
12.93864362763695
 10
5.847970005117839
 20
12.93654638853999
 10
5.858657515290365
 20
12.93485138145419
 10
5.868615067246542
 20
12.93350506154032
 10
5.878025051199382
 20
12.93249471314084
 10
5.88652030253707
 20
12.93187080152166
 10
5.893837766093995
 20
12.9316404295696
 10
5.900182084483888
 20
12.93178084817859
 10
5.905646240952597
 20
12.93231286930374
 10
5.909993803742514
 20
12.93323261864317
 10
5.91311549767155
 20
12.93449285951587
 10
5.915131724122153
 20
12.93610422141683
 10
5.916033741079754
 20
12.93811861005755
 10
5.915744062506145
 20
12.94047835794421
 10
5.914318319403117
 20
12.94308710423442
 10
5.911778764171388
 20
12.94598776427241
 10
5.908017313721762
 20
12.94925737706157
 10
5.903122580292807
 20
12.95279103842708
 10
5.89731033269861
 20
12.95645419088336
 10
5.890501495443767
 20
12.96031711824071
 10
5.882500167929119
 20
12.9644733501209
 10
5.873552318655437
 20
12.96878256725601
 10
5.864008422934001
 20
12.97308716503116
 10
5.853698011480754
 20
12.97747674909564
 10
5.842359618587281
 20
12.98205105788839
 10
5.830367164058473
 20
12.98665000326765
 10
5.818168080094443
 20
12.99111066587102
 10
5.805517987651612
 20
12.99553213842046
 10
5.792120452963298
 20
13.00000874526632
 10
5.778435623887167
 20
13.00437890815071
 10
5.76495662951766
 20
13.00849277106257
 10
5.75139379128117
 20
13.01244758891396
 10
5.737447496496623
 20
13.01632184115382
 10
5.723613258444255
 20
13.01997048981321
 10
5.710373874746746
 20
13.02327372955613
 10
5.697426951172934
 20
13.026316000296
 10
5.68450426682133
 20
13.02915109522474
 10
5.672080274664348
 20
13.03166690793963
 10
5.660576975586996
 20
13.03380105224581
 10
5.649725751323487
 20
13.03565530307424
 10
5.639324740810182
 20
13.03727188038163
 10
5.629766539973999
 20
13.03855760223997
 10
5.621357914053386
 20
13.03946180470121
 10
5.613857265554851
 20
13.04000639247231
 10
5.607139822088664
 20
13.0401706529392
 10
5.601479367656495
 20
13.03992011474899
 10
5.597025708598877
 20
13.0392674438887
 10
5.593636588496949
 20
13.03820946144394
 10
5.591286576035605
 20
13.03669753995868
 10
5.590103225154664
 20
13.03476649847957
 10
5.590082959575441
 20
13.03250281341207
 10
5.591170545660443
 20
13.02987608638735
 10
5.593445058905071
 20
13.02681742437017
 10
5.596872325979656
 20
13.02343053944242
 10
5.601292606436198
 20
13.01985659527115
 10
5.606754776083415
 20
13.01604338812164
 10
5.613432483119752
 20
13.01191089875829
 10
5.621134595317628
 20
13.00761390057536
 10
5.631935751679526
 20
13.00217646685573
 10
5.644246892375734
 20
12.99659384615553
  0
LWPOLYLINE
  5
DF
330
1F
100
AcDbEntity
  8
0
100
AcDbPolyline
 90
        4
 70
   128
 43
0.0
 10
10.85599656526544
 20
15.41690258510244
 10
10.85599616790114
 20
15.41690258510244
 10
10.05615985020298
 20
15.41446833140981
 10
9.953618701540415
 20
15.41415640043549
  0
ARC
  5
E0
330
1F
100
AcDbEntity
  8
0
100
AcDbCircle
 10
9.972402340992418
 20
6.934208594620367
 30
0.0
 40
8.479968609285046
100
AcDbArc
 50
90.12691369439727
 51
91.5890486499723
  0
ARC
  5
E1
330
1F
100
AcDbEntity
  8
0
100
AcDbCircle
 10
9.075333685765871
 20
37.56351589934279
 30
0.0
 40
22.162486517431
100
AcDbArc
 50
270.2507753040695
 51
271.7114746140715
  0
LWPOLYLINE
  5
E2
330
1F
100
AcDbEntity
  8
0
100
AcDbPolyline
 90
       10
 70
   128
 43
0.0
 10
9.172335360192244
 20
15.40124166336985
 10
8.016107535603628
 20
15.39784936435354
 10
7.630692776285595
 20
15.39675104943248
 10
7.24527155979771
 20
15.39570637869171
 10
6.859838323039796
 20
15.39477177786164
 10
6.679072733961528
 20
15.39439487782451
 10
6.498301383100933
 20
15.3940910928183
 10
6.317514336350546
 20
15.3938922119869
 10
6.136723117275026
 20
15.39382803765269
 10
6.136722719910727
 20
15.39382803765269
  0
ARC
  5
E3
330
1F
100
AcDbEntity
  8
0
100
AcDbCircle
 10
6.139339465168005
 20
14.34120113213367
 30
0.0
 40
1.052630158022415
100
AcDbArc
 50
90.14243237530383
 51
253.5064528932378
  0
LWPOLYLINE
  5
E4
330
1F
100
AcDbEntity
  8
0
100
AcDbPolyline
 90
        9
 70
   128
 43
0.0
 10
5.840490019562826
 20
13.33188489901356
 10
5.840490416927125
 20
13.33188479967248
 10
6.02708156530359
 20
13.27706270741753
 10
6.213624632599936
 20
13.22209525433513
 10
6.400141275170431
 20
13.1670151484741
 10
6.586629903557883
 20
13.11186247395806
 10
7.135214166087891
 20
12.94939580884906
 10
7.683734651647991
 20
12.7867782446477
 10
8.780731366319443
 20
12.46142912236186
  0
ARC
  5
E5
330
1F
100
AcDbEntity
  8
0
100
AcDbCircle
 10
2.01485719361024
 20
-10.23194077976017
 30
0.0
 40
23.68050022350609
100
AcDbArc
 50
72.05545551020442
 51
73.39840756557453
  0
ARC
  5
E6
330
1F
100
AcDbEntity
  8
0
100
AcDbCircle
 10
12.00429113694975
 20
20.67557738342894
 30
0.0
 40
8.80125527355161
100
AcDbArc
 50
252.1791035660243
 51
253.5184331391123
  0
LWPOLYLINE
  5
E7
330
1F
100
AcDbEntity
  8
0
100
AcDbPolyline
 90
        4
 70
   128
 43
0.0
 10
9.507314643505202
 20
12.23595637408229
 10
10.27415688459375
 20
12.00854101108841
 10
10.36091959103245
 20
11.98281058000855
 10
10.36091998839675
 20
11.98281048066747
  0
LWPOLYLINE
  5
E8
330
1F
100
AcDbEntity
  8
0
100
AcDbPolyline
 90
      120
 70
   128
 43
0.0
 10
10.36091998839675
 20
11.98281048066747
 10
10.36092038576104
 20
11.9828103813264
 10
10.39754545315403
 20
11.97274305748276
 10
10.43438430253961
 20
11.96348774758311
 10
10.48404500508605
 20
11.95236770637166
 10
10.53402409577666
 20
11.94271920449865
 10
10.58425620818434
 20
11.93455475893947
 10
10.62226758027373
 20
11.92938534743917
 10
10.66038494928974
 20
11.9250646067394
 10
10.70838288092909
 20
11.9208457899822
 10
10.75649028643268
 20
11.91797364083262
 10
10.80465054138798
 20
11.91644974874787
 10
10.8596228125125
 20
11.91635875232351
 10
10.91459915662108
 20
11.91801983443232
 10
10.96949592852889
 20
11.92142842538488
 10
11.02422988041538
 20
11.92658025351496
 10
11.07988631352085
 20
11.93363724477422
 10
11.13531406347253
 20
11.9425056211882
 10
11.1904267035355
 20
11.95316680597595
 10
11.24513760829268
 20
11.96560252037974
 10
11.29168525958357
 20
11.97766659982336
 10
11.33789078021346
 20
11.99101863629949
 10
11.38370072468418
 20
12.00564303325943
 10
11.43524284784295
 20
12.02379950212769
 10
11.48621356114048
 20
12.04358168768219
 10
11.53653875613509
 20
12.06495641000402
 10
11.58614472174941
 20
12.08789048917425
 10
11.63585280998844
 20
12.1128132773174
 10
11.68476716304122
 20
12.13932214505804
 10
11.73281347378391
 20
12.1673761638734
 10
11.77991743509271
 20
12.19693430589966
 10
11.82469760998386
 20
12.22704100934001
 10
11.86854795241652
 20
12.25853312340709
 10
11.91140766565301
 20
12.29136256702077
 10
11.95321674768426
 20
12.32548115975988
 10
11.98985015972752
 20
12.35720553325943
 10
12.02559963488875
 20
12.38993732459676
 10
12.06042364859877
 20
12.42363977757426
 10
12.09902182841597
 20
12.4632815353804
 10
12.13636791332859
 20
12.5041434002651
 10
12.17240964993137
 20
12.54616159525844
 10
12.20709399009047
 20
12.58927264141373
 10
12.2395552756816
 20
12.63229517467153
 10
12.27069711311954
 20
12.67631399956675
 10
12.30047579233148
 20
12.72126682924561
 10
12.32884720588027
 20
12.76709152586591
 10
12.35311185940403
 20
12.80896373915009
 10
12.37622097754775
 20
12.8514954778287
 10
12.39814932767846
 20
12.89463801510465
 10
12.42171899104415
 20
12.94459982044828
 10
12.44372125093438
 20
12.99530156778626
 10
12.4641231261124
 20
13.04666830427778
 10
12.48289183402358
 20
13.09862527576419
 10
12.49782081071832
 20
13.14408727812103
 10
12.51151239498752
 20
13.18994649576477
 10
12.5239524803986
 20
13.23615181771251
 10
12.535204247875
 20
13.28299138275119
 10
12.54517451548873
 20
13.330129641566
 10
12.55385076626438
 20
13.37751389371685
 10
12.56130611523289
 20
13.42569468743932
 10
12.56742433333693
 20
13.47407287187708
 10
12.57219926142989
 20
13.52259250248305
 10
12.57564818485874
 20
13.57156595862459
 10
12.57773255928654
 20
13.62062579532298
 10
12.57845019920963
 20
13.66971489863924
 10
12.57765686138767
 20
13.72369225648375
 10
12.57520671312311
 20
13.77764496532412
 10
12.57110313201247
 20
13.83149674363267
 10
12.56535009169875
 20
13.88517129746409
 10
12.55878046775161
 20
13.93319585251145
 10
12.55088980619409
 20
13.98103002038928
 10
12.54168704772292
 20
14.02861941185923
 10
12.52958094700474
 20
14.08261049118968
 10
12.51577333236037
 20
14.13621955441765
 10
12.50028506541548
 20
14.189366532637
 10
12.48313581570286
 20
14.24197135694158
 10
12.46692633255619
 20
14.28712863055201
 10
12.44948621217706
 20
14.33183405128451
 10
12.43083492541609
 20
14.37603755123747
 10
12.40818615381219
 20
14.42561475761068
 10
12.38399461531935
 20
14.47448639400136
 10
12.3582946819494
 20
14.52258068648311
 10
12.33112112307845
 20
14.56982630816432
 10
12.30198100829421
 20
14.61698649652135
 10
12.27134660506545
 20
14.66322221683792
 10
12.23926420633294
 20
14.70846393036179
 10
12.20578070108392
 20
14.75264199899964
 10
12.17169300341902
 20
14.79479023145966
 10
12.13629301015832
 20
14.83587571310333
 10
12.09963317338922
 20
14.87583963401449
 10
12.06176594519911
 20
14.91462308493586
 10
12.02653244757948
 20
14.94862962094279
 10
11.99035044137933
 20
14.98163787849081
 10
11.95326184853214
 20
15.01360792246791
 10
11.91003258649804
 20
15.04865376479757
 10
11.86567838613489
 20
15.08231002417537
 10
11.82026858751275
 20
15.11452563928894
 10
11.77387233201959
 20
15.14524954882594
 10
11.73299010221459
 20
15.17059215235047
 10
11.69141308093367
 20
15.19479461836152
 10
11.64918875321049
 20
15.21782803860637
 10
11.60026168450016
 20
15.24265277710887
 10
11.55054564897516
 20
15.26592024492554
 10
11.50011634453434
 20
15.28759607004456
 10
11.44904966775872
 20
15.3076458804541
 10
11.39631267015436
 20
15.32641597914032
 10
11.34296730780898
 20
15.34347443111074
 10
11.28909802063602
 20
15.35879381822876
 10
11.23478865250248
 20
15.37234692103994
 10
11.19361515466668
 20
15.3813798062735
 10
11.1522266827454
 20
15.38940080332093
 10
11.11066019161839
 20
15.39640355435344
 10
11.07927178963322
 20
15.40100086060496
 10
11.0478041134705
 20
15.40501861102712
 10
11.01648147527673
 20
15.40843395717275
 10
10.98510161662398
 20
15.41127511190705
 10
10.94212040925322
 20
15.41422872073781
 10
10.89907204731602
 20
15.41610527363749
 10
10.85599696262974
 20
15.41690258510244
 10
10.85599656526544
 20
15.41690258510244
  0
ARC
  5
E9
330
1F
100
AcDbEntity
  8
0
100
AcDbCircle
 10
6.038693208828665
 20
14.35079576911702
 30
0.0
 40
1.455496644575348
100
AcDbArc
 50
111.1549460623562
 51
150.903386036956
  0
LWPOLYLINE
  5
EA
330
1F
100
AcDbEntity
  8
0
100
AcDbPolyline
 90
       47
 70
   128
 43
0.0
 10
5.513417081279542
 20
15.70820339845947
 10
5.55482085172632
 20
15.72349059906932
 10
5.596693114681031
 20
15.73750961152049
 10
5.6389746628632
 20
15.75024295178386
 10
5.681605096899455
 20
15.76167373187673
 10
5.725228544317668
 20
15.77194003589284
 10
5.76917067790328
 20
15.78085172501536
 10
5.813368316732829
 20
15.78839648095103
 10
5.857757485154257
 20
15.794561190678
 10
5.89737629517216
 20
15.79888193137777
 10
5.937106367193645
 20
15.8021097215745
 10
5.97690260037083
 20
15.80424098498952
 10
6.016954537474101
 20
15.80524313775035
 10
6.057026144110149
 20
15.80543764757447
 10
6.097099141521241
 20
15.80537923502259
 10
6.337771968288209
 20
15.80537923502259
 10
6.815513924999025
 20
15.80537923502259
 10
7.293255683027691
 20
15.80537923502259
 10
7.781809822959687
 20
15.80537923502259
 10
9.692777376614994
 20
15.80537923502259
 10
11.01681545996962
 20
15.80537923502259
 10
11.34782488767602
 20
15.80537923502259
 10
11.43057938043573
 20
15.80556222128205
 10
11.5133297008703
 20
15.80514717427226
 10
11.56856035812992
 20
15.8036624225709
 10
11.62374571585951
 20
15.80080596931112
 10
11.67883431538242
 20
15.79657960263225
 10
11.73376555864312
 20
15.79098749485942
 10
11.78854918106693
 20
15.78403004335694
 10
11.84313432002364
 20
15.77571400331787
 10
11.89780071997939
 20
15.76598354505829
 10
11.95221499228774
 20
15.75488635229401
 10
12.00632567827203
 20
15.74243196176819
 10
12.06305102134047
 20
15.72782783038747
 10
12.1193805895676
 20
15.7117272250586
 10
12.17525477830865
 20
15.6941460403535
 10
12.23099485659896
 20
15.67496506698263
 10
12.28621399029392
 20
15.65430331555339
 10
12.34085336947737
 20
15.63218264110219
 10
12.39432449762323
 20
15.60886431065532
 10
12.44717990978855
 20
15.5841347409023
 10
12.49936437233585
 20
15.55801995920472
 10
12.55082344635624
 20
15.53054698633484
 10
12.60211066031752
 20
15.50138700333568
 10
12.65261784816084
 20
15.47085631218882
 10
12.70229196175236
 20
15.43898849017751
 10
12.75107915822961
 20
15.40581691590281
  0
ARC
  5
EB
330
1F
100
AcDbEntity
  8
0
100
AcDbCircle
 10
11.44964247367046
 20
13.54785533249694
 30
0.0
 40
2.268426478713461
100
AcDbArc
 50
29.82732315618935
 51
54.99011058746324
  0
ARC
  5
EC
330
1F
100
AcDbEntity
  8
0
100
AcDbCircle
 10
11.44560696919376
 20
13.60388042782
 30
0.0
 40
2.273715713111329
100
AcDbArc
 50
305.0182280507251
 51
330.12108335266
  0
ARC
  5
ED
330
1F
100
AcDbEntity
  8
0
100
AcDbCircle
 10
11.48152217169853
 20
13.55572176471933
 30
0.0
 40
2.213666477378908
100
AcDbArc
 50
264.3787040922975
 51
304.9722024822347
  0
ARC
  5
EE
330
1F
100
AcDbEntity
  8
0
100
AcDbCircle
 10
11.48397086258481
 20
13.59360895604609
 30
0.0
 40
2.251611688221201
100
AcDbArc
 50
259.3572405050338
 51
264.4111291560092
  0
LINE
  5
EF
330
1F
100
AcDbEntity
  8
0
100
AcDbLine
 10
14.28344146037398
 20
16.24009836045237
 30
0.0
 11
4.283441460373984
 21
16.24009836045237
 31
0.0
  0
LINE
  5
F0
330
1F
100
AcDbEntity
  8
0
100
AcDbLine
 10
11.10033030931451
 20
10.90676494764618
 30
0.0
 11
14.28344146037398
 21
10.90676494764618
 31
0.0
  0
LWPOLYLINE
  5
F1
330
1F
100
AcDbEntity
  8
0
100
AcDbPolyline
 90
       29
 70
   128
 43
0.0
 10
5.898312485459433
 20
12.93173947262101
 10
5.897185162944581
 20
12.93255352305702
 10
5.891372517986085
 20
12.93621667551331
 10
5.884563680731242
 20
12.94007955320013
 10
5.876562750580893
 20
12.94423583475085
 10
5.867614901307211
 20
12.94854505188596
 10
5.858071005585776
 20
12.95284959999057
 10
5.847760594132529
 20
12.95723923372559
 10
5.836421803874756
 20
12.96181354251834
 10
5.824429349345948
 20
12.9664124878976
 10
5.812230662746217
 20
12.97087315050097
 10
5.799580570303386
 20
12.97529462305041
 10
5.786183035615072
 20
12.97977122989627
 10
5.772498206538942
 20
12.98414134311012
 10
5.759019212169434
 20
12.98825525569252
 10
5.745456373932944
 20
12.99221007354391
 10
5.731510079148398
 20
12.99608432578377
 10
5.717675841096029
 20
12.99973297444316
 10
5.70443645739852
 20
13.00303621418607
 10
5.691489533824708
 20
13.00607848492595
 10
5.678566849473105
 20
13.00891357985469
 10
5.666142857316122
 20
13.01142939256958
 10
5.65463955823877
 20
13.01356328852308
 10
5.643787936610963
 20
13.01541654594076
 10
5.633386528733359
 20
13.01703103708557
 10
5.62382753316858
 20
13.01831392772329
 10
5.615417317790773
 20
13.01921505061122
 10
5.607915477199341
 20
13.01975640979739
 10
5.60121790194808
 20
13.01991694497399
  0
LWPOLYLINE
  5
F2
330
1F
100
AcDbEntity
  8
0
100
AcDbPolyline
 90
      119
 70
   128
 43
0.0
 10
9.961617098493363
 20
15.01870878862671
 10
10.26048288369475
 20
15.01961835550598
 10
10.5593486192256
 20
15.02052792238526
 10
10.64340805634159
 20
15.02109575596782
 10
10.72746977830229
 20
15.02184071468643
 10
10.81152712925572
 20
15.02209234562846
 10
10.89557375137307
 20
15.02118049390447
 10
10.9393051825394
 20
15.01957553950282
 10
10.98297313475905
 20
15.01655149785014
 10
11.026508367303
 20
15.01211333600017
 10
11.07029413803715
 20
15.00620015787415
 10
11.11387427274682
 20
14.99885328935913
 10
11.15717823926904
 20
14.99008266456258
 10
11.20103136325179
 20
14.97967171994182
 10
11.2445479196737
 20
14.96778854059509
 10
11.28765598559676
 20
14.95445657101603
 10
11.33028423412937
 20
14.93969915635717
 10
11.37236074233351
 20
14.92353974111211
 10
11.41481713080702
 20
14.90555721846553
 10
11.45666932686466
 20
14.88611309058797
 10
11.49784600361485
 20
14.86524580247533
 10
11.53827603284814
 20
14.84299330241811
 10
11.57788808767297
 20
14.81939383673004
 10
11.60963232938745
 20
14.79912050890259
 10
11.64080575728713
 20
14.77796652244858
 10
11.6713712178101
 20
14.75595561988485
 10
11.70745149874983
 20
14.72824095018041
 10
11.74260671560266
 20
14.69930070963832
 10
11.77678044263818
 20
14.66918744968705
 10
11.80991565807957
 20
14.63795352307292
 10
11.84195593619643
 20
14.60565108386012
 10
11.86856782063145
 20
14.57708674994441
 10
11.89434961104689
 20
14.54775997328095
 10
11.91926892225244
 20
14.51770701336197
 10
11.94251850867568
 20
14.48798913088771
 10
11.9649370076686
 20
14.45763000177674
 10
11.98649898791609
 20
14.42666519013377
 10
12.01148207609155
 20
14.38831615773173
 10
12.03517571711836
 20
14.34911120263072
 10
12.05754176402388
 20
14.309118572149
 10
12.07854167247115
 20
14.26840656327538
 10
12.0981372954875
 20
14.22704342332812
 10
12.11361006522475
 20
14.19156187104515
 10
12.12806975468296
 20
14.15564689365359
 10
12.14149887983301
 20
14.11934215155574
 10
12.15359703326521
 20
14.08356952992412
 10
12.16469760362604
 20
14.04746699658366
 10
12.17478648448287
 20
14.01107637412679
 10
12.18565042440393
 20
13.96660433041386
 10
12.19501828774113
 20
13.9217533253365
 10
12.20287636542616
 20
13.87660002536905
 10
12.20921174311934
 20
13.83122107215059
 10
12.21401091043451
 20
13.78569313215546
 10
12.21688107276259
 20
13.74684047775797
 10
12.21863563482263
 20
13.70791341689559
 10
12.21927439793247
 20
13.66896003064843
 10
12.21882934991815
 20
13.63121669940484
 10
12.21733903511661
 20
13.59349293369633
 10
12.21480504298506
 20
13.55583216419898
 10
12.21031721059778
 20
13.51018669905595
 10
12.20428522054651
 20
13.46468009876541
 10
12.1967229805817
 20
13.41938937283885
 10
12.18764419977167
 20
13.37439152923556
 10
12.17706258718469
 20
13.329763569706
 10
12.16695284470219
 20
13.29235393134089
 10
12.15578174217838
 20
13.25523941047323
 10
12.14356159790653
 20
13.21846530663304
 10
12.13065699363051
 20
13.18300173508458
 10
12.11676990612644
 20
13.14790356484385
 10
12.10191742205916
 20
13.11321088003449
 10
12.08261882885593
 20
13.07170558300944
 10
12.06191912913619
 20
13.03083770798973
 10
12.03985408568678
 20
12.99067614801061
 10
12.01645965997674
 20
12.95128969676626
 10
11.99177181347508
 20
12.91274729696246
 10
11.96988876287439
 20
12.88082111206981
 10
11.9471021058589
 20
12.84952410387329
 10
11.92344025397597
 20
12.8188935252759
 10
11.89959501846928
 20
12.78975261576307
 10
11.87494889521895
 20
12.7612765960627
 10
11.84952950104374
 20
12.73349879510534
 10
11.8176700236827
 20
12.70076531496974
 10
11.78469792628584
 20
12.66909716851842
 10
11.75067182008721
 20
12.63854511904053
 10
11.71565031632084
 20
12.60916002916626
 10
11.67969182753859
 20
12.58099266218476
 10
11.64863780761061
 20
12.55818603761327
 10
11.61694323643345
 20
12.5362653367453
 10
11.58464487020471
 20
12.51525897112819
 10
11.55254915976821
 20
12.49564725485774
 10
11.51991561675368
 20
12.4769297076
 10
11.48678258681594
 20
12.45912689295741
 10
11.44594188158013
 20
12.43877448963455
 10
11.40440400068261
 20
12.41979239709508
 10
11.36223987365065
 20
12.40221220580073
 10
11.31952062869368
 20
12.3860656055543
 10
11.27631719533898
 20
12.37138418681753
 10
11.23950357858636
 20
12.36014215476644
 10
11.20237803085941
 20
12.34994836973481
 10
11.16498565300602
 20
12.34081515001587
 10
11.12074490015008
 20
12.3314538431896
 10
11.07617771252293
 20
12.32357371178599
 10
11.03135978802342
 20
12.31718588200541
 10
10.98636583113967
 20
12.31230148004822
 10
10.94127163911162
 20
12.30893163211477
 10
10.89524860803582
 20
12.30705994692775
 10
10.84914809092182
 20
12.30675953951808
 10
10.80305075272221
 20
12.30803011186254
 10
10.75703725838957
 20
12.31087156462006
 10
10.71118817353545
 20
12.31528379844956
 10
10.67107881729104
 20
12.32045251456233
 10
10.63113347316084
 20
12.32682335701915
 10
10.59140608334838
 20
12.33438768314652
 10
10.55161461854277
 20
12.34326202002498
 10
10.51209803049066
 20
12.35333401289912
 10
10.47286893550851
 20
12.36445166992478
 10
10.1718705457876
 20
12.4537159833047
 10
9.905462370557573
 20
12.5327222379777
 10
9.626640509807057
 20
12.61540977485311
  0
ARC
  5
F3
330
1F
100
AcDbEntity
  8
0
100
AcDbCircle
 10
3.262364370888717
 20
-43.85409905457041
 30
0.0
 40
59.15834536356625
100
AcDbArc
 50
83.64411069625672
 51
84.25893396731826
  0
ARC
  5
F4
330
1F
100
AcDbEntity
  8
0
100
AcDbCircle
 10
22.00758918467363
 20
83.70629858561382
 30
0.0
 40
72.07138135784595
100
AcDbArc
 50
259.5205795638473
 51
260.0132096590699
  0
ARC
  5
F5
330
1F
100
AcDbEntity
  8
0
100
AcDbCircle
 10
11.2228323856956
 20
12.40916678127911
 30
0.0
 40
2.898339781458412
100
AcDbArc
 50
115.7948989631118
 51
119.1418182076865
  0
ARC
  5
F6
330
1F
100
AcDbEntity
  8
0
100
AcDbCircle
 10
11.54651796925321
 20
14.75993672753306
 30
0.0
 40
2.878354618538199
100
AcDbArc
 50
224.9345214058499
 51
228.1636576682346
  0
LWPOLYLINE
  5
F7
330
1F
100
AcDbEntity
  8
0
100
AcDbPolyline
 90
       71
 70
   128
 43
0.0
 10
8.899077183249579
 20
12.83704626885386
 10
7.800984239819632
 20
13.16176077551973
 10
7.434869762503093
 20
13.26973689921033
 10
7.06865981841384
 20
13.37741040515236
 10
6.702296491705364
 20
13.48459684801431
 10
6.418792363249248
 20
13.56707014344466
 10
6.277005032939698
 20
13.60821295109721
 10
6.135230219605551
 20
13.64940536099009
 10
5.993492361151164
 20
13.69078377462757
 10
5.958031372470643
 20
13.70108255075745
 10
5.922808405004924
 20
13.71213384794525
 10
5.888018763306723
 20
13.72505786098373
 10
5.854005174083496
 20
13.73990422315729
 10
5.821113344274944
 20
13.75650465068551
 10
5.789167241496826
 20
13.77491686073275
 10
5.758312698446697
 20
13.7950531972183
 10
5.727779225749757
 20
13.81753284064265
 10
5.698552286866293
 20
13.84173500863048
 10
5.670772151393678
 20
13.8675397965047
 10
5.64524546885787
 20
13.89408311076295
 10
5.621207312984253
 20
13.92201918688746
 10
5.598766958954916
 20
13.95121848411691
 10
5.577404256903117
 20
13.98251757847599
 10
5.557841217759238
 20
14.01500789649618
 10
5.540171619497722
 20
14.04853088982236
 10
5.524869120362387
 20
14.08200888164174
 10
5.511430259787029
 20
14.11630797711345
 10
5.499916231873617
 20
14.15127057162257
 10
5.490113254629558
 20
14.18785734303129
 10
5.48240120832422
 20
14.22497275796863
 10
5.476817842565959
 20
14.26243626403145
 10
5.473450577500448
 20
14.29909659750593
 10
5.47211543345748
 20
14.3359153303239
 10
5.472817973537233
 20
14.37272318529419
 10
5.475674625479168
 20
14.41049892035457
 10
5.480679826183107
 20
14.44808153636587
 10
5.487810528519736
 20
14.48528794772756
 10
5.496772285543864
 20
14.52101646192205
 10
5.507705366852865
 20
14.55622144865326
 10
5.520560499273723
 20
14.59074058460526
 10
5.535770809891806
 20
14.62546078689229
 10
5.552946484330282
 20
14.6592865221434
 10
5.572005268179363
 20
14.69205248681041
 10
5.592293099803711
 20
14.72280192700358
 10
5.614266948146608
 20
14.7524052692188
 10
5.637827074769125
 20
14.78072532343201
 10
5.663675622386719
 20
14.80845509297979
 10
5.691081043325847
 20
14.83469126947057
 10
5.719912207368002
 20
14.85930461016627
 10
5.75011984134017
 20
14.88224186825089
 10
5.781609372539307
 20
14.90344055818848
 10
5.814228610439088
 20
14.92279527909887
 10
5.840171333395427
 20
14.93645865050288
 10
5.866716460628297
 20
14.94897850679688
 10
5.89378610873519
 20
14.96031888651184
 10
5.921303189042196
 20
14.97044402686091
 10
5.948240117473389
 20
14.97904716260564
 10
5.975518580519145
 20
14.98649804122579
 10
6.003292358162985
 20
14.99282328612935
 10
6.031311905625448
 20
14.99795097437831
 10
6.060174660129334
 20
15.00194617437653
 10
6.089185035470114
 20
15.00467179544103
 10
6.118505951010173
 20
15.00605084823899
 10
6.147864616158591
 20
15.00637837576203
 10
6.40056347473759
 20
15.0060398213797
 10
6.653254982077068
 20
15.00532277750305
 10
6.905934767169739
 20
15.00469851819011
 10
7.284975207093344
 20
15.00439542857142
 10
7.664005216204112
 20
15.00459977316193
 10
8.42207983756362
 20
15.00580706524185
 10
9.180146269493286
 20
15.00751563238434
  0
ARC
  5
F8
330
1F
100
AcDbEntity
  8
0
100
AcDbCircle
 10
10.94755751181918
 20
13.65785049046346
 30
0.0
 40
1.713570406116853
100
AcDbArc
 50
131.5309101279455
 51
212.9048928649868
  0
ARC
  5
F9
330
1F
100
AcDbEntity
  8
0
100
AcDbCircle
 10
10.91118773368634
 20
13.67991763185933
 30
0.0
 40
2.18151804983448
100
AcDbArc
 50
142.5141030008381
 51
202.7287676194142
  0
CIRCLE
  5
FA
330
1F
100
AcDbEntity
  8
0
100
AcDbCircle
 10
6.150108127040651
 20
14.33965402321957
 30
0.0
 40
0.3665179007108046
  0
CIRCLE
  5
FB
330
1F
100
AcDbEntity
  8
0
100
AcDbCircle
 10
6.150108127040651
 20
14.33965402321957
 30
0.0
 40
0.1700000000000017
  0
LINE
  5
1A9
330
1F
100
AcDbEntity
  8
0
100
AcDbLine
 10
6.666046749490354
 20
3.878024348124258
 30
0.0
 11
6.801452057759907
 21
3.755709841915422
 31
0.0
  0
LINE
  5
1AA
330
1F
100
AcDbEntity
  8
0
100
AcDbLine
 10
9.014081107911074
 20
3.925587423835586
 30
0.0
 11
8.884348015235197
 21
3.788436419883733
 31
0.0
  0
LINE
  5
1AB
330
1F
100
AcDbEntity
  8
0
100
AcDbLine
 10
6.801452057759907
 20
3.755709841915422
 30
0.0
 11
8.884348015235197
 21
3.788436419883733
 31
0.0
  0
LINE
  5
1AC
330
1F
100
AcDbEntity
  8
0
100
AcDbLine
 10
12.13522810030195
 20
4.058101305799037
 30
0.0
 11
11.96609959948412
 21
3.881448070366538
 31
0.0
  0
LINE
  5
1AD
330
1F
100
AcDbEntity
  8
0
100
AcDbLine
 10
10.07857790030671
 20
3.842736026742796
 30
0.0
 11
11.96609959948412
 21
3.881448070366538
 31
0.0
  0
LINE
  5
1AE
330
1F
100
AcDbEntity
  8
0
100
AcDbLine
 10
9.877792182926519
 20
4.012952587458429
 30
0.0
 11
10.07857790030671
 21
3.842736026742796
 31
0.0
  0
ARC
  5
1AF
330
1F
100
AcDbEntity
  8
0
100
AcDbCircle
 10
5.730651191433391
 20
6.589043175248756
 30
0.0
 40
0.1700000000000032
100
AcDbArc
 50
271.0371042329729
 51
51.65725073950213
  0
LWPOLYLINE
  5
1B0
330
1F
100
AcDbEntity
  8
0
100
AcDbPolyline
 90
        3
 70
   128
 43
0.0
 10
4.604830897095785
 20
6.722376507588677
 10
4.816287513815349
 20
5.577170935341172
 10
5.06575917824406
 20
4.22600049482629
  0
LWPOLYLINE
  5
1B1
330
1F
100
AcDbEntity
  8
0
100
AcDbPolyline
 90
       22
 70
   128
 43
0.0
 10
12.59800191347101
 20
4.313813236423783
 10
12.59813205027876
 20
4.314114438562048
 10
12.64608001335758
 20
4.425054179696692
 10
12.69480879728296
 20
4.537806696761104
 10
12.74431879941919
 20
4.652371989755286
 10
12.79461160922347
 20
4.768749661314938
 10
12.84568841878869
 20
4.886940108804358
 10
12.89456502223311
 20
5.000036942033423
 10
12.94413979475
 20
5.114745286175065
 10
12.99441313370365
 20
5.231064942547136
 10
13.04538543645837
 20
5.348995911149634
 10
13.09705749774275
 20
5.46853839066471
 10
13.15262531860966
 20
5.597086635299974
 10
13.20898031815189
 20
5.727447556523932
 10
13.26612209900516
 20
5.85962105499551
 10
13.32405026380517
 20
5.993607230055783
 10
13.38276441518762
 20
6.129406032034212
 10
13.44226375842391
 20
6.267017460930797
 10
13.4990816873739
 20
6.398425586092922
 10
13.55659540121057
 20
6.531445122826549
 10
13.61480370784102
 20
6.666076046296411
 10
13.6391442579458
 20
6.722376507588677
  0
ARC
  5
1B2
330
1F
100
AcDbEntity
  8
0
100
AcDbCircle
 10
12.21127888968853
 20
4.481039913161528
 30
0.0
 40
0.4213339598082855
100
AcDbArc
 50
271.1457598679219
 51
336.620581489076
  0
ARC
  5
1B3
330
1F
100
AcDbEntity
  8
0
100
AcDbCircle
 10
9.636008222154982
 20
3.215588945937858
 30
0.0
 40
0.7923381736735348
100
AcDbArc
 50
90.64636691321512
 51
100.06791079506
  0
ARC
  5
1B4
330
1F
100
AcDbEntity
  8
0
100
AcDbCircle
 10
8.781990876238005
 20
7.739420370960709
 30
0.0
 40
3.811354351566055
100
AcDbArc
 50
272.6199770205957
 51
280.8197878182783
  0
ARC
  5
1B5
330
1F
100
AcDbEntity
  8
0
100
AcDbCircle
 10
5.480060729427674
 20
4.30242225326702
 30
0.0
 40
0.4212301365767425
100
AcDbArc
 50
190.4514101851834
 51
268.8712648249497
  0
ARC
  5
1B6
330
1F
100
AcDbEntity
  8
0
100
AcDbCircle
 10
6.739767126789991
 20
98.39342754247383
 30
0.0
 40
94.49525002444238
100
AcDbArc
 50
271.2693642728865
 51
271.4902086508185
  0
LWPOLYLINE
  5
1B7
330
1F
100
AcDbEntity
  8
0
100
AcDbPolyline
 90
       22
 70
   128
 43
0.0
 10
8.844357884171591
 20
3.927034921515438
 10
8.844337767603979
 20
3.927033530740393
 10
8.844625061991797
 20
3.927050617405229
 10
8.845400121056027
 20
3.927095519570959
 10
8.846687035007263
 20
3.927168038555437
 10
8.848508105916765
 20
3.927268373040808
 10
8.850883748375363
 20
3.927395926980628
 10
8.853831595423804
 20
3.927550501692745
 10
8.857366399211672
 20
3.927731699812862
 10
8.861499981326845
 20
3.927938527930233
 10
8.866241034113354
 20
3.928170787362708
 10
8.871595542870945
 20
3.928427087335242
 10
8.877567059043036
 20
3.928707229165686
 10
8.884156898898867
 20
3.929009822078996
 10
8.891364814085747
 20
3.929334270028724
 10
8.899189115805414
 20
3.929679579604122
 10
8.907627320530997
 20
3.930044757394446
 10
8.916667507333544
 20
3.930428809988949
 10
8.926296339673783
 20
3.930830147930437
 10
8.936400543891377
 20
3.931244002847326
 10
8.947118005397902
 20
3.931675341793351
 10
8.956375575306998
 20
3.932041512994421
  0
LINE
  5
1B8
330
1F
100
AcDbEntity
  8
0
100
AcDbLine
 10
5.471760189774618
 20
3.881272462078386
 30
0.0
 11
5.775656855347738
 21
3.875194576450639
 31
0.0
  0
LINE
  5
1B9
330
1F
100
AcDbEntity
  8
0
100
AcDbLine
 10
6.524559215945985
 20
3.875194576450639
 30
0.0
 11
8.832513000809139
 21
3.921353605457597
 31
0.0
  0
ARC
  5
1BA
330
1F
100
AcDbEntity
  8
0
100
AcDbCircle
 10
6.150108127040651
 20
4.32854912208036
 30
0.0
 40
0.5880000000000014
100
AcDbArc
 50
286.8050184659896
 51
309.5552288032998
  0
ARC
  5
1BB
330
1F
100
AcDbEntity
  8
0
100
AcDbCircle
 10
6.150108127040651
 20
4.32854912208036
 30
0.0
 40
0.5880000000000008
100
AcDbArc
 50
230.4447711967018
 51
253.1949815340119
  0
LWPOLYLINE
  5
1BC
330
1F
100
AcDbEntity
  8
0
100
AcDbPolyline
 90
        3
 70
   128
 43
0.0
 10
9.197090677910036
 20
3.930168139009131
 10
9.229923319064562
 20
3.931134131618791
 10
9.233506958303836
 20
3.931285130052222
  0
ARC
  5
1BD
330
1F
100
AcDbEntity
  8
0
100
AcDbCircle
 10
9.061134117957502
 20
7.849978519010772
 30
0.0
 40
3.92248335266693
100
AcDbArc
 50
272.5240376358566
 51
281.0740546679359
  0
ARC
  5
1BE
330
1F
100
AcDbEntity
  8
0
100
AcDbCircle
 10
9.973085152867795
 20
3.127606179928859
 30
0.0
 40
0.8870376015244064
100
AcDbArc
 50
90.71314884013984
 51
100.2931696722441
  0
LINE
  5
1BF
330
1F
100
AcDbEntity
  8
0
100
AcDbLine
 10
11.10033030931451
 20
6.722376507588677
 30
0.0
 11
11.10033030931451
 21
6.955709841915422
 31
0.0
  0
LINE
  5
1C0
330
1F
100
AcDbEntity
  8
0
100
AcDbLine
 10
11.10033030931451
 20
6.955709841915422
 30
0.0
 11
14.28344146037398
 21
6.955709841915422
 31
0.0
  0
LINE
  5
1C1
330
1F
100
AcDbEntity
  8
0
100
AcDbLine
 10
14.28344146037398
 20
6.722376507588677
 30
0.0
 11
14.28344146037398
 21
6.955709841915422
 31
0.0
  0
LINE
  5
1C2
330
1F
100
AcDbEntity
  8
0
100
AcDbLine
 10
14.28344146037398
 20
6.722376507588677
 30
0.0
 11
11.10033030931451
 21
6.722376507588677
 31
0.0
  0
LINE
  5
1C3
330
1F
100
AcDbEntity
  8
0
100
AcDbLine
 10
4.283441460373984
 20
6.722376507588677
 30
0.0
 11
4.283441460373984
 21
6.955709841915422
 31
0.0
  0
LINE
  5
1C4
330
1F
100
AcDbEntity
  8
0
100
AcDbLine
 10
4.283441460373984
 20
6.955709841915422
 30
0.0
 11
11.10033030931451
 21
6.955709841915422
 31
0.0
  0
LINE
  5
1C5
330
1F
100
AcDbEntity
  8
0
100
AcDbLine
 10
11.10033030931451
 20
6.722376507588677
 30
0.0
 11
4.283441460373984
 21
6.722376507588677
 31
0.0
  0
LINE
  5
1C6
330
1F
100
AcDbEntity
  8
0
100
AcDbLine
 10
5.638309475027507
 20
6.716192028987857
 30
0.0
 11
5.646343386414633
 21
6.722376507588677
 31
0.0
  0
LWPOLYLINE
  5
1C7
330
1F
100
AcDbEntity
  8
0
100
AcDbPolyline
 90
       47
 70
   128
 43
0.0
 10
5.835676348450766
 20
6.722376507588677
 10
5.842032587769613
 20
6.717940705089224
 10
5.856296376628663
 20
6.705452265410078
 10
5.869227802994833
 20
6.69141894784416
 10
5.880582885188843
 20
6.676104676791482
 10
5.890231287720785
 20
6.659638173449488
 10
5.898105061295614
 20
6.642190999854061
 10
5.904056386394288
 20
6.624091254739417
 10
5.908001419149822
 20
6.60550319857245
 10
5.909930225454754
 20
6.586609221566173
 10
5.909806645157919
 20
6.567764617073986
 10
5.907603260122722
 20
6.549150657721811
 10
5.903369343522177
 20
6.530939973462078
 10
5.897185162944581
 20
6.513475117155366
 10
5.889081712805217
 20
6.496933834819448
 10
5.879162705185995
 20
6.481459624636623
 10
5.867614901307211
 20
6.467343506285004
 10
5.854525323950237
 20
6.454739806124025
 10
5.840039408448324
 20
6.443746673135413
 10
5.824429349345948
 20
6.434570786424928
 10
5.807829455776001
 20
6.42732564317033
 10
5.790409799658244
 20
6.422052916952424
 10
5.772498206538942
 20
6.418851799834223
 10
5.754259185237672
 20
6.417782045472118
 10
5.735869960231569
 20
6.418824232686015
 10
5.717675841096029
 20
6.421958791284216
 10
5.699854052308188
 20
6.427185025879198
 10
5.682568307959027
 20
6.434424606033616
 10
5.666142857316122
 20
6.443541384804698
 10
5.650760885321086
 20
6.454482115376445
 10
5.636567032578573
 20
6.46712455855653
 10
5.62382753316858
 20
6.481230146754238
 10
5.612686232967164
 20
6.496665067542049
 10
5.603199557704713
 20
6.513270524212175
 10
5.595535592479492
 20
6.530730214783006
 10
5.589779770615683
 20
6.548904714056306
 10
5.585964278621461
 20
6.567591887780481
 10
5.584159052613363
 20
6.5864381314004
 10
5.58440661057133
 20
6.605244290896707
 10
5.586676752808676
 20
6.623854549793853
 10
5.590931332352743
 20
6.641921959388706
 10
5.597165183467653
 20
6.659273691046688
 10
5.605301614843791
 20
6.675757504570933
 10
5.615198370062297
 20
6.691069838472657
 10
5.626066680990642
 20
6.704281729527765
 10
5.638309475027507
 20
6.716192028987857
 10
5.638309475027507
 20
6.716192028987857
  0
LINE
  5
1C8
330
1F
100
AcDbEntity
  8
0
100
AcDbLine
 10
9.501377176486439
 20
4.365801003643327
 30
0.0
 11
10.35498257104852
 21
4.382872965999895
 31
0.0
  0
ARC
  5
1C9
330
1F
100
AcDbEntity
  8
0
100
AcDbCircle
 10
9.520960866337487
 20
3.12897506750262
 30
0.0
 40
1.236980968818242
100
AcDbArc
 50
90.90713574662608
 51
100.0642635228751
  0
ARC
  5
1CA
330
1F
100
AcDbEntity
  8
0
100
AcDbCircle
 10
8.673782789181395
 20
7.62296022060642
 30
0.0
 40
3.336256012660868
100
AcDbArc
 50
271.7349972113118
 51
280.9024761395268
  0
LWPOLYLINE
  5
1CB
330
1F
100
AcDbEntity
  8
0
100
AcDbPolyline
 90
        9
 70
   128
 43
0.0
 10
5.834552602214601
 20
4.238914238481177
 10
5.834552999578899
 20
4.238914238481177
 10
6.021143949273215
 20
4.239408360986365
 10
6.207687215251709
 20
4.240907616484615
 10
6.394203857822206
 20
4.243166036475154
 10
6.580692486209657
 20
4.245934076178524
 10
7.129276748739665
 20
4.255506582129451
 10
7.67779713495869
 20
4.266148792771948
 10
8.77479389930068
 20
4.288233704436275
  0
LINE
  5
1CC
330
1F
100
AcDbEntity
  8
0
100
AcDbLine
 10
12.59793098394372
 20
4.313843833474768
 30
0.0
 11
12.59798264130253
 21
4.313865291146887
 31
0.0
  0
LINE
  5
1CD
330
1F
100
AcDbEntity
  8
0
100
AcDbLine
 10
5.644246892375734
 20
6.719401465921056
 30
0.0
 11
5.64811165754297
 21
6.722376507588677
 31
0.0
  0
LWPOLYLINE
  5
1CE
330
1F
100
AcDbEntity
  8
0
100
AcDbPolyline
 90
       27
 70
   128
 43
0.0
 10
5.828512267513062
 20
6.436970668105734
 10
5.813766873124228
 20
6.43053505526826
 10
5.796347217006471
 20
6.425262329050355
 10
5.778435623887167
 20
6.422061211932156
 10
5.760196602585898
 20
6.420991457570049
 10
5.741807377579794
 20
6.422033644783947
 10
5.723613258444255
 20
6.425168203382147
 10
5.705791469656413
 20
6.430394437977128
 10
5.688505725307252
 20
6.437634018131547
 10
5.672080274664348
 20
6.446750846573166
 10
5.656698700033611
 20
6.457691676485987
 10
5.642505244655397
 20
6.470334467359833
 10
5.629766539973999
 20
6.484440552262915
 10
5.618627226594076
 20
6.499875622062338
 10
5.609141743424521
 20
6.516481178073537
 10
5.601479367656495
 20
6.533940918314906
 10
5.595723943156984
 20
6.552115864623042
 10
5.59190884852706
 20
6.570803386040978
 10
5.590103225154664
 20
6.589649729001973
 10
5.590350385748332
 20
6.608455168275488
 10
5.592619335892782
 20
6.62706455793823
 10
5.596872325979656
 20
6.645130974122339
 10
5.60310458763737
 20
6.66248178687538
 10
5.611239429556317
 20
6.678964756000492
 10
5.621134595317628
 20
6.69427644418523
 10
5.632002906245973
 20
6.707489775685919
 10
5.644246892375734
 20
6.719401465921056
  0
LWPOLYLINE
  5
1CF
330
1F
100
AcDbEntity
  8
0
100
AcDbPolyline
 90
       70
 70
   128
 43
0.0
 10
12.21966977540948
 20
4.059790161320023
 10
12.21926049018202
 20
4.059782015351904
 10
12.21778448049524
 20
4.059752411711667
 10
12.21527492626804
 20
4.059702145127905
 10
12.21170321727095
 20
4.059630818236324
 10
12.20708485071161
 20
4.059538431036922
 10
12.20142399891514
 20
4.059425182211849
 10
12.19456568980513
 20
4.059288091528865
 10
12.18662893398899
 20
4.059129344491614
 10
12.17762446030277
 20
4.058949139782243
 10
12.167479749762
 20
4.058746285307857
 10
12.15626334770817
 20
4.058521973161353
 10
12.14398816848097
 20
4.058276600707027
 10
12.13116184497176
 20
4.058019903370194
 10
12.117364363117
 20
4.057743933864885
 10
12.10261280958154
 20
4.057449089555396
 10
12.08680406832991
 20
4.057132787573788
 10
12.07004761322636
 20
4.056797610788001
 10
12.05236271643935
 20
4.056443956562334
 10
12.03334505979516
 20
4.056063678928667
 10
12.0133786958883
 20
4.055664327808671
 10
11.99248627448378
 20
4.055246499248796
 10
11.97051540637312
 20
4.054807014334651
 10
11.9476325871974
 20
4.054349449344926
 10
11.92386682455041
 20
4.053874002961768
 10
11.9001735808879
 20
4.053400146035803
 10
11.87568918490706
 20
4.052910593220048
 10
11.85044085606236
 20
4.052405543196651
 10
11.82425891979832
 20
4.051882015733374
 10
11.79732973997094
 20
4.051343388426754
 10
11.76968510572412
 20
4.050790456005388
 10
11.74072102332411
 20
4.050211098858171
 10
11.71104565882979
 20
4.049617635278357
 10
11.68069477502801
 20
4.049010661312394
 10
11.64945677542983
 20
4.048385805953
 10
11.61756987993219
 20
4.047748234936052
 10
11.58507144077915
 20
4.047098146943701
 10
11.55317918086348
 20
4.046460377244605
 10
11.52075604224501
 20
4.045811878709448
 10
11.48783917848565
 20
4.045153446066829
 10
11.45421500627496
 20
4.044481105673763
 10
11.42012869938511
 20
4.043799228537533
 10
11.38561959688165
 20
4.043109205433183
 10
11.34994383279779
 20
4.042395539153073
 10
11.31386752550104
 20
4.041674124269141
 10
11.27743438506423
 20
4.040945358145687
 10
11.24039466802575
 20
4.040204671093278
 10
11.20303864900567
 20
4.039457427529944
 10
11.16541222358046
 20
4.038705018230729
 10
11.12886960927942
 20
4.037974066603633
 10
11.09211718662876
 20
4.037239141333553
 10
11.05519687756199
 20
4.036500639784787
 10
11.0178698661357
 20
4.035754190950049
 10
10.98041569813389
 20
4.035004960565222
 10
10.94287838165261
 20
4.034254339405351
 10
10.90445702894825
 20
4.033485836852046
 10
10.86599494640329
 20
4.032716738252295
 10
10.8275388243228
 20
4.031947440970394
 10
10.78882759436268
 20
4.031173375316911
 10
10.750170207265
 20
4.030400104392025
 10
10.71161474410989
 20
4.029629018970781
 10
10.66562081996896
 20
4.028709120619747
 10
10.619847830378
 20
4.027793791958147
 10
10.57437713567712
 20
4.026884225078874
 10
10.52884991590478
 20
4.025973664788855
 10
10.48367227737405
 20
4.025070257056209
 10
10.43870524192153
 20
4.024170822966548
 10
10.17229711636204
 20
4.018842763770077
 10
9.905888941132015
 20
4.013514505891455
 10
9.627067080381499
 20
4.007938094008419
  0
ARC
  5
1D0
330
1F
100
AcDbEntity
  8
0
100
AcDbCircle
 10
10.00748981579203
 20
1.329656128651493
 30
0.0
 40
2.685366111890648
100
AcDbArc
 50
90.96969895556158
 51
94.10252383330444
  0
LINE
  5
1D1
330
1F
100
AcDbEntity
  8
0
100
AcDbLine
 10
8.833098964137818
 20
3.921367711890193
 30
0.0
 11
8.832512951138602
 21
3.921356188325538
 31
0.0
  0
LINE
  5
1D2
330
1F
100
AcDbEntity
  8
0
100
AcDbLine
 10
6.524559215945985
 20
3.875194576450639
 30
0.0
 11
5.775656855347738
 21
3.875194576450639
 31
0.0
  0
LINE
  5
1D3
330
1F
100
AcDbEntity
  8
0
100
AcDbLine
 10
6.150108134987936
 20
3.76566011415765
 30
0.0
 11
5.98010813816685
 21
3.76566011415765
 31
0.0
  0
LINE
  5
1D4
330
1F
100
AcDbEntity
  8
0
100
AcDbLine
 10
6.320108131809022
 20
3.76566011415765
 30
0.0
 11
6.150108134987936
 21
3.76566011415765
 31
0.0
  0
ARC
  5
1D5
330
1F
100
AcDbEntity
  8
0
100
AcDbCircle
 10
6.925008169954958
 20
-83.74600427202059
 30
0.0
 40
87.9916756213044
100
AcDbArc
 50
90.71006831818865
 51
91.21063682222239
  0
LWPOLYLINE
  5
1D6
330
1F
100
AcDbEntity
  8
0
100
AcDbPolyline
 90
       68
 70
   128
 43
0.0
 10
10.35498257104852
 20
4.382872965999895
 10
10.35498296841282
 20
4.382872965999895
 10
10.4045072756638
 20
4.3807087213481
 10
10.45441643023787
 20
4.378553417393022
 10
10.50464516504902
 20
4.376408047545407
 10
10.55556233350732
 20
4.374256518551164
 10
10.6067371927132
 20
4.372117109168025
 10
10.65810199205377
 20
4.369992004899634
 10
10.70667620126703
 20
4.368001209764136
 10
10.75536057973204
 20
4.366025315789832
 10
10.80409790698983
 20
4.364071475534094
 10
10.85320736591317
 20
4.362128761478714
 10
10.90231235448816
 20
4.360210684009843
 10
10.95135465884505
 20
4.358318236538225
 10
11.00139534100193
 20
4.356410093176815
 10
11.05130906526544
 20
4.354527778494808
 10
11.10103364412286
 20
4.352671491174353
 10
11.15090981746016
 20
4.350832290518733
 10
11.20053207501072
 20
4.349030640789322
 10
11.24983902399041
 20
4.347267336714718
 10
11.29675622407892
 20
4.345613903868648
 10
11.34332930668491
 20
4.343995041716549
 10
11.38950462762811
 20
4.342410948940568
 10
11.43557166679997
 20
4.340849108565303
 10
11.48118153834639
 20
4.339322236248308
 10
11.52628198886214
 20
4.337835299043311
 10
11.57180761917729
 20
4.33636008408512
 10
11.61674872660933
 20
4.334928380517615
 10
11.66105186566013
 20
4.333540188340796
 10
11.7050059201747
 20
4.332185176082902
 10
11.74825942143101
 20
4.330872483122798
 10
11.79075852656661
 20
4.329601513414038
 10
11.83084026599227
 20
4.328421937493933
 10
11.87018111968337
 20
4.327285475600215
 10
11.90873856965997
 20
4.32619351850793
 10
11.94674447799025
 20
4.325138317613257
 10
11.98391453051863
 20
4.324126032062822
 10
12.02020680531162
 20
4.323156860538774
 10
12.05633874361017
 20
4.322209345368994
 10
12.09151164317427
 20
4.321304944225603
 10
12.1256841781169
 20
4.320446041294389
 10
12.15906973306634
 20
4.31962846425022
 10
12.19140386208195
 20
4.318857776193274
 10
12.22264881555536
 20
4.318133381077104
 10
12.25173051778772
 20
4.317477928666724
 10
12.27976655586857
 20
4.316864199507686
 10
12.30672454460758
 20
4.316291398871395
 10
12.33275746925968
 20
4.315755950479163
 10
12.35766783976851
 20
4.315263218749019
 10
12.38143002613682
 20
4.314813799727413
 10
12.40449086451827
 20
4.314399547446224
 10
12.42632980768182
 20
4.31402920392002
 10
12.44692162299452
 20
4.31370257046665
 10
12.46638432765303
 20
4.313416865536026
 10
12.48455659175215
 20
4.313174075949642
 10
12.50141596420902
 20
4.312974996436092
 10
12.51644328856765
 20
4.31282439536696
 10
12.53023103499709
 20
4.312714722820573
 10
12.54276509706476
 20
4.312645780114783
 10
12.55410905305841
 20
4.312616971203142
 10
12.5641691250036
 20
4.312629090814246
 10
12.57293359065352
 20
4.312681344219499
 10
12.58053556704817
 20
4.312776314286841
 10
12.58677517994541
 20
4.312913206287674
 10
12.59164627019861
 20
4.313092020222001
 10
12.59516632183689
 20
4.313314146864864
 10
12.59729599579471
 20
4.313578990169816
 10
12.59793098394372
 20
4.313843833474768
  0
LWPOLYLINE
  5
1D7
330
1F
100
AcDbEntity
  8
0
100
AcDbPolyline
 90
       41
 70
   128
 43
0.0
 10
9.497483180207993
 20
3.995780534613582
 10
9.495516624294705
 20
3.995474564103736
 10
9.490743409835285
 20
3.995154089796993
 10
9.485874356074122
 20
3.995412773955318
 10
9.480916280292458
 20
3.996250417896562
 10
9.475876074277348
 20
3.997665829527828
 10
9.470760791245089
 20
3.999656823345475
 10
9.465577546500151
 20
4.002221015163712
 10
9.460333591940985
 20
4.005354431339555
 10
9.455036229136572
 20
4.009052899547868
 10
9.449692858996973
 20
4.013311254052771
 10
9.444310932102785
 20
4.018123534389786
 10
9.438897961122776
 20
4.023482985365841
 10
9.433461495978621
 20
4.029382057059261
 10
9.428009123844887
 20
4.035812802184078
 10
9.422548444313791
 20
4.042766081361426
 10
9.417087094230438
 20
4.050231960483842
 10
9.411632673187044
 20
4.058200505443864
 10
9.40619280561108
 20
4.066660192676835
 10
9.400775078677124
 20
4.07559929993595
 10
9.395387042306847
 20
4.085005508927954
 10
9.390036234004286
 20
4.094865507948849
 10
9.384730104350037
 20
4.105165786612483
 10
9.37947605425416
 20
4.115891841121965
 10
9.374281422538546
 20
4.127028571633948
 10
9.369153461101637
 20
4.138560480940792
 10
9.364099310083176
 20
4.150471674470557
 10
9.359126035117096
 20
4.162745462922705
 10
9.354240571452168
 20
4.175364560950253
 10
9.349449730160818
 20
4.188311484524064
 10
9.344760198139137
 20
4.201568153568559
 10
9.34017852568923
 20
4.215116090643856
 10
9.33571110168396
 20
4.228936420945776
 10
9.331364150462533
 20
4.243009673623694
 10
9.327143750456954
 20
4.257316377826982
 10
9.323055781417078
 20
4.271836665340714
 10
9.319105952350284
 20
4.286550071903519
 10
9.3152997704774
 20
4.301436133254024
 10
9.311642547441509
 20
4.316474186448706
 10
9.308139388442523
 20
4.331643171179744
 10
9.304795178267346
 20
4.34692182845717
  0
LINE
  5
1D8
330
1F
100
AcDbEntity
  8
0
100
AcDbLine
 10
8.956206422292179
 20
3.93224377142236
 30
0.0
 11
8.899451500418768
 21
3.930370794801367
 31
0.0
  0
LWPOLYLINE
  5
1D9
330
1F
100
AcDbEntity
  8
0
100
AcDbPolyline
 90
       34
 70
   128
 43
0.0
 10
8.899451500418768
 20
3.930370794801367
 10
7.801299846413717
 20
3.908273763525936
 10
7.435161825262492
 20
3.901111470727576
 10
7.068924661718792
 20
3.894270446964555
 10
6.702527956409241
 20
3.888071365225765
 10
6.418878193937725
 20
3.884072886972082
 10
6.27701774859725
 20
3.88256091581628
 10
6.135171807053671
 20
3.881522006857845
 10
5.993366396668539
 20
3.88106424318597
 10
5.957889314733928
 20
3.881050732799821
 10
5.922650651378419
 20
3.881062455046627
 10
5.887845512472575
 20
3.881076958843522
 10
5.853816426041708
 20
3.881091263958268
 10
5.820903535925334
 20
3.881105171708716
 10
5.788937564932292
 20
3.881118682094865
 10
5.758063551031536
 20
3.881131993798865
 10
5.727511004848268
 20
3.881145106820715
 10
5.698265787207072
 20
3.881157822478267
 10
5.670468167705323
 20
3.881169942089372
 10
5.644925590597575
 20
3.881181465654028
 10
5.620872732244914
 20
3.881192393172237
 10
5.59841847046513
 20
3.881202724643998
 10
5.577042258027182
 20
3.88121285743361
 10
5.557467297954347
 20
3.881222394176774
 10
5.539786573492473
 20
3.881231136191341
 10
5.524474537613974
 20
3.881239083477312
 10
5.511027729752646
 20
3.881246236034684
 10
5.499506549281861
 20
3.881252792545609
 10
5.489697611573324
 20
3.881258753010087
 10
5.481980796896404
 20
3.881263918745968
 10
5.476393854859457
 20
3.881268091071102
 10
5.473025000336752
 20
3.881271667349788
 10
5.471688664200888
 20
3.881274250217729
 10
5.471762971324708
 20
3.881274448899878
  0
LWPOLYLINE
  5
1DA
330
1F
100
AcDbEntity
  8
0
100
AcDbPolyline
 90
        9
 70
   128
 43
0.0
 10
9.815375016374375
 20
4.008141345847103
 10
9.777838246269013
 20
4.007379797169022
 10
9.741336113455878
 20
4.006638712752316
 10
9.701692666851467
 20
4.005833255319251
 10
9.663403785470114
 20
4.005055017340633
 10
9.626530886931208
 20
4.00430499222721
 10
9.591135488195206
 20
4.003584769436174
 10
9.55727903171677
 20
4.00289573974257
 10
9.544872970623757
 20
4.002643214730872
  0
ARC
  5
1DB
330
1F
100
AcDbEntity
  8
0
100
AcDbCircle
 10
9.097516996664909
 20
7.213169382552255
 30
0.0
 40
3.284436763362522
100
AcDbArc
 50
271.7395210575267
 51
282.6246748946945
  0
LWPOLYLINE
  5
1DC
330
1F
100
AcDbEntity
  8
0
100
AcDbPolyline
 90
       26
 70
   128
 43
0.0
 10
8.832512951138602
 20
3.921356188325538
 10
8.821080879611756
 20
3.921130088039689
 10
8.805550641062842
 20
3.92084577388411
 10
8.791452751798416
 20
3.920613514451635
 10
8.77797728403706
 20
3.920423574316952
 10
8.76614804689386
 20
3.920294629602087
 10
8.755977706355835
 20
3.920226878989193
 10
8.747479176762686
 20
3.920221117206865
 10
8.740608847382651
 20
3.92027794030155
 10
8.735445744040594
 20
3.920397149591101
 10
8.732035662971918
 20
3.92057536747898
 10
8.73028795544603
 20
3.920812991329484
 10
8.730255272232479
 20
3.921128895946793
 10
8.732096012674753
 20
3.92150917358046
 10
8.735807295881695
 20
3.921952036091142
 10
8.741386538985358
 20
3.922455496657344
 10
8.748784021777893
 20
3.923014190861039
 10
8.758025076233334
 20
3.923629112112972
 10
8.769095397236929
 20
3.924297478863054
 10
8.781980679673937
 20
3.925016708243343
 10
8.796666717770682
 20
3.925784018703751
 10
8.813537762803818
 20
3.926615900862667
 10
8.832280890388275
 20
3.927493678598059
 10
8.852866894248114
 20
3.928414172995541
 10
8.875266816460079
 20
3.929374205140723
 10
8.899451500418768
 20
3.930370794801367
  0
LWPOLYLINE
  5
1DD
330
1F
100
AcDbEntity
  8
0
100
AcDbPolyline
 90
        7
 70
   128
 43
0.0
 10
9.814576860510296
 20
4.000416981248511
 10
9.814588930450863
 20
4.000419365434302
 10
9.814964787406708
 20
4.000806398261044
 10
9.815231617533152
 20
4.001773781645748
 10
9.815389073136435
 20
4.00332032349552
 10
9.815436856193329
 20
4.005443838306718
 10
9.815375016374375
 20
4.008141345847103
  0
ENDSEC
  0
SECTION
  2
OBJECTS
  0
DICTIONARY
  5
C
330
0
100
AcDbDictionary
  3
ACAD_GROUP
350
D
  3
ACAD_LAYOUT
350
1A
  3
ACAD_MLINESTYLE
350
17
  3
ACAD_PLOTSETTINGS
350
19
  3
ACAD_PLOTSTYLENAME
350
E
  3
ACDBHEADERROUNDTRIPXREC
350
29E
  3
ACDBVARIABLEDICTIONARY
350
29B
  0
DICTIONARY
  5
2C1
330
1F
100
AcDbDictionary
280
     1
  3
ACAD_LAYOUTSELFREF
360
2C2
  0
DICTIONARY
  5
2BF
330
1B
100
AcDbDictionary
280
     1
  3
ACAD_LAYOUTSELFREF
360
2C0
  0
DICTIONARY
  5
D
102
{ACAD_REACTORS
330
C
102
}
330
C
100
AcDbDictionary
  0
DICTIONARY
  5
1A
102
{ACAD_REACTORS
330
C
102
}
330
C
100
AcDbDictionary
  0
DICTIONARY
  5
17
102
{ACAD_REACTORS
330
C
102
}
330
C
100
AcDbDictionary
  3
STANDARD
350
18
  0
DICTIONARY
  5
19
102
{ACAD_REACTORS
330
C
102
}
330
C
100
AcDbDictionary
  0
ACDBDICTIONARYWDFLT
  5
E
102
{ACAD_REACTORS
330
C
102
}
330
C
100
AcDbDictionary
281
     1
  3
Normal
350
F
100
AcDbDictionaryWithDefault
340
F
  0
DICTIONARY
  5
29E
102
{ACAD_REACTORS
330
C
102
}
330
C
100
AcDbDictionary
  3
CEPSNTYPE
350
2A8
  3
DIMSTYLEDATA
350
2AC
  3
FINGERPRINTGUID
350
2A9
  3
HYPERLINKBASE
350
2A1
  3
INSUNITS
350
2A7
  3
LAYOUTDICT
350
2A3
  3
LWETCUNION
350
2A6
  3
PLOTSETDICT
350
2A4
  3
PLOTSTYLNAMDICT
350
2A5
  3
PSVPSCALE
350
2AB
  3
PUCSBASE
350
2AF
  3
PUCSORGBACK
350
2B5
  3
PUCSORGBOTTOM
350
2B1
  3
PUCSORGFRONT
350
2B4
  3
PUCSORGLEFT
350
2B2
  3
PUCSORGRIGHT
350
2B3
  3
PUCSORGTOP
350
2B0
  3
PUCSORTHOREF
350
2AD
  3
PUCSORTHOVIEW
350
2AE
  3
STYLESHEET
350
2A2
  3
TSTACKALIGN
350
29F
  3
TSTACKSIZE
350
2A0
  3
UCSBASE
350
2B8
  3
UCSORGBACK
350
2BE
  3
UCSORGBOTTOM
350
2BA
  3
UCSORGFRONT
350
2BD
  3
UCSORGLEFT
350
2BB
  3
UCSORGRIGHT
350
2BC
  3
UCSORGTOP
350
2B9
  3
UCSORTHOREF
350
2B6
  3
UCSORTHOVIEW
350
2B7
  3
VERSIONGUID
350
2AA
  0
DICTIONARY
  5
29B
102
{ACAD_REACTORS
330
C
102
}
330
C
100
AcDbDictionary
  3
DIMASSOC
350
29C
  0
XRECORD
  5
2C2
102
{ACAD_REACTORS
330
2C1
102
}
330
2C1
100
AcDbXrecord
340
1F
  0
XRECORD
  5
2C0
102
{ACAD_REACTORS
330
2BF
102
}
330
2BF
100
AcDbXrecord
340
1B
  0
MLINESTYLE
  5
18
102
{ACAD_REACTORS
330
17
102
}
330
17
100
AcDbMlineStyle
  2
STANDARD
 70
     0
  3

 62
   256
 51
90.0
 52
90.0
 71
     2
 49
0.5
 62
   256
  6
BYLAYER
 49
-0.5
 62
   256
  6
BYLAYER
  0
ACDBPLACEHOLDER
  5
F
102
{ACAD_REACTORS
330
E
102
}
330
E
100
AcDbPlaceHolder
280
     0
  0
XRECORD
  5
2A8
102
{ACAD_REACTORS
330
29E
102
}
330
29E
100
AcDbXrecord
 90
        0
  0
XRECORD
  5
2AC
102
{ACAD_REACTORS
330
29E
102
}
330
29E
100
AcDbXrecord
1000
DSTYLE
1002
{
1070
   278
 70
    44
1002
}
  0
XRECORD
  5
2A9
102
{ACAD_REACTORS
330
29E
102
}
330
29E
100
AcDbXrecord
  1
{9A052D95-3FB6-4C54-8138-3D40702E29DD}
  0
XRECORD
  5
2A1
102
{ACAD_REACTORS
330
29E
102
}
330
29E
100
AcDbXrecord
  1

  0
XRECORD
  5
2A7
102
{ACAD_REACTORS
330
29E
102
}
330
29E
100
AcDbXrecord
 90
        4
  0
XRECORD
  5
2A3
102
{ACAD_REACTORS
330
29E
102
}
330
29E
100
AcDbXrecord
340
1A
  0
XRECORD
  5
2A6
102
{ACAD_REACTORS
330
29E
102
}
330
29E
100
AcDbXrecord
 90
    10781
  0
XRECORD
  5
2A4
102
{ACAD_REACTORS
330
29E
102
}
330
29E
100
AcDbXrecord
340
19
  0
XRECORD
  5
2A5
102
{ACAD_REACTORS
330
29E
102
}
330
29E
100
AcDbXrecord
340
E
  0
XRECORD
  5
2AB
102
{ACAD_REACTORS
330
29E
102
}
330
29E
100
AcDbXrecord
 40
0.0
  0
XRECORD
  5
2AF
102
{ACAD_REACTORS
330
29E
102
}
330
29E
100
AcDbXrecord
340
0
  0
XRECORD
  5
2B5
102
{ACAD_REACTORS
330
29E
102
}
330
29E
100
AcDbXrecord
 10
0.0
 20
0.0
 30
0.0
  0
XRECORD
  5
2B1
102
{ACAD_REACTORS
330
29E
102
}
330
29E
100
AcDbXrecord
 10
0.0
 20
0.0
 30
0.0
  0
XRECORD
  5
2B4
102
{ACAD_REACTORS
330
29E
102
}
330
29E
100
AcDbXrecord
 10
0.0
 20
0.0
 30
0.0
  0
XRECORD
  5
2B2
102
{ACAD_REACTORS
330
29E
102
}
330
29E
100
AcDbXrecord
 10
0.0
 20
0.0
 30
0.0
  0
XRECORD
  5
2B3
102
{ACAD_REACTORS
330
29E
102
}
330
29E
100
AcDbXrecord
 10
0.0
 20
0.0
 30
0.0
  0
XRECORD
  5
2B0
102
{ACAD_REACTORS
330
29E
102
}
330
29E
100
AcDbXrecord
 10
0.0
 20
0.0
 30
0.0
  0
XRECORD
  5
2AD
102
{ACAD_REACTORS
330
29E
102
}
330
29E
100
AcDbXrecord
340
0
  0
XRECORD
  5
2AE
102
{ACAD_REACTORS
330
29E
102
}
330
29E
100
AcDbXrecord
 70
     0
  0
XRECORD
  5
2A2
102
{ACAD_REACTORS
330
29E
102
}
330
29E
100
AcDbXrecord
  1

  0
XRECORD
  5
29F
102
{ACAD_REACTORS
330
29E
102
}
330
29E
100
AcDbXrecord
 90
        1
  0
XRECORD
  5
2A0
102
{ACAD_REACTORS
330
29E
102
}
330
29E
100
AcDbXrecord
 90
       70
  0
XRECORD
  5
2B8
102
{ACAD_REACTORS
330
29E
102
}
330
29E
100
AcDbXrecord
340
0
  0
XRECORD
  5
2BE
102
{ACAD_REACTORS
330
29E
102
}
330
29E
100
AcDbXrecord
 10
0.0
 20
0.0
 30
0.0
  0
XRECORD
  5
2BA
102
{ACAD_REACTORS
330
29E
102
}
330
29E
100
AcDbXrecord
 10
0.0
 20
0.0
 30
0.0
  0
XRECORD
  5
2BD
102
{ACAD_REACTORS
330
29E
102
}
330
29E
100
AcDbXrecord
 10
0.0
 20
0.0
 30
0.0
  0
XRECORD
  5
2BB
102
{ACAD_REACTORS
330
29E
102
}
330
29E
100
AcDbXrecord
 10
0.0
 20
0.0
 30
0.0
  0
XRECORD
  5
2BC
102
{ACAD_REACTORS
330
29E
102
}
330
29E
100
AcDbXrecord
 10
0.0
 20
0.0
 30
0.0
  0
XRECORD
  5
2B9
102
{ACAD_REACTORS
330
29E
102
}
330
29E
100
AcDbXrecord
 10
0.0
 20
0.0
 30
0.0
  0
XRECORD
  5
2B6
102
{ACAD_REACTORS
330
29E
102
}
330
29E
100
AcDbXrecord
340
0
  0
XRECORD
  5
2B7
102
{ACAD_REACTORS
330
29E
102
}
330
29E
100
AcDbXrecord
 70
     0
  0
XRECORD
  5
2AA
102
{ACAD_REACTORS
330
29E
102
}
330
29E
100
AcDbXrecord
  1
{E47173BE-F939-4660-B7EC-6675997F5425}
  0
DICTIONARYVAR
  5
29C
102
{ACAD_REACTORS
330
29B
102
}
330
29B
100
DictionaryVariables
280
     0
  1
1
  0
ENDSEC
  0
EOF
