  0
SECTION
  2
HEADER
  9
$ACADVER
  1
AC1014
  9
$ACADMAINTVER
 70
     9
  9
$DWGCODEPAGE
  3
ANSI_1250
  9
$INSBASE
 10
0.0
 20
0.0
 30
0.0
  9
$EXTMIN
 10
4.281701734291516
 20
3.754852348187533
 30
-0.0015258207003583
  9
$EXTMAX
 10
14.29258122797192
 20
16.24058537050219
 30
0.0000000349246037
  9
$LIMMIN
 10
0.0
 20
0.0
  9
$LIMMAX
 10
0.0
 20
0.0
  9
$ORTHOMODE
 70
     0
  9
$REGENMODE
 70
     1
  9
$FILLMODE
 70
     1
  9
$QTEXTMODE
 70
     0
  9
$MIRRTEXT
 70
     1
  9
$DRAGMODE
 70
     2
  9
$LTSCALE
 40
1.0
  9
$OSMODE
 70
  1007
  9
$ATTMODE
 70
     1
  9
$TEXTSIZE
 40
2.5
  9
$TRACEWID
 40
1.0
  9
$TEXTSTYLE
  7
STANDARD
  9
$CLAYER
  8
0
  9
$CELTYPE
  6
BYLAYER
  9
$CECOLOR
 62
   256
  9
$CELTSCALE
 40
1.0
  9
$DELOBJ
 70
     1
  9
$DISPSILH
 70
     0
  9
$DIMSCALE
 40
1.0
  9
$DIMASZ
 40
0.3
  9
$DIMEXO
 40
0.1
  9
$DIMDLI
 40
3.75
  9
$DIMRND
 40
0.0
  9
$DIMDLE
 40
0.0
  9
$DIMEXE
 40
0.1
  9
$DIMTP
 40
0.0
  9
$DIMTM
 40
0.0
  9
$DIMTXT
 40
0.2822222222222222
  9
$DIMCEN
 40
2.5
  9
$DIMTSZ
 40
0.0
  9
$DIMTOL
 70
     0
  9
$DIMLIM
 70
     0
  9
$DIMTIH
 70
     1
  9
$DIMTOH
 70
     1
  9
$DIMSE1
 70
     0
  9
$DIMSE2
 70
     0
  9
$DIMTAD
 70
     1
  9
$DIMZIN
 70
     0
  9
$DIMBLK
  1

  9
$DIMASO
 70
     1
  9
$DIMSHO
 70
     1
  9
$DIMPOST
  1

  9
$DIMAPOST
  1

  9
$DIMALT
 70
     0
  9
$DIMALTD
 70
     3
  9
$DIMALTF
 40
0.3937007874015748
  9
$DIMLFAC
 40
15.0
  9
$DIMTOFL
 70
     1
  9
$DIMTVP
 40
0.0
  9
$DIMTIX
 70
     0
  9
$DIMSOXD
 70
     0
  9
$DIMSAH
 70
     0
  9
$DIMBLK1
  1

  9
$DIMBLK2
  1

  9
$DIMSTYLE
  2
ISO-25
  9
$DIMCLRD
 70
     0
  9
$DIMCLRE
 70
     0
  9
$DIMCLRT
 70
     0
  9
$DIMTFAC
 40
1.0
  9
$DIMGAP
 40
0.1524
  9
$DIMJUST
 70
     0
  9
$DIMSD1
 70
     0
  9
$DIMSD2
 70
     0
  9
$DIMTOLJ
 70
     0
  9
$DIMTZIN
 70
     0
  9
$DIMALTZ
 70
     0
  9
$DIMALTTZ
 70
     0
  9
$DIMFIT
 70
     3
  9
$DIMUPT
 70
     0
  9
$DIMUNIT
 70
     2
  9
$DIMDEC
 70
     2
  9
$DIMTDEC
 70
     2
  9
$DIMALTU
 70
     2
  9
$DIMALTTD
 70
     3
  9
$DIMTXSTY
  7
STANDARD
  9
$DIMAUNIT
 70
     0
  9
$LUNITS
 70
     2
  9
$LUPREC
 70
     2
  9
$SKETCHINC
 40
1.0
  9
$FILLETRAD
 40
10.0
  9
$AUNITS
 70
     0
  9
$AUPREC
 70
     0
  9
$MENU
  1
.
  9
$ELEVATION
 40
0.0
  9
$PELEVATION
 40
0.0
  9
$THICKNESS
 40
0.0
  9
$LIMCHECK
 70
     0
  9
$BLIPMODE
 70
     0
  9
$CHAMFERA
 40
10.0
  9
$CHAMFERB
 40
10.0
  9
$CHAMFERC
 40
20.0
  9
$CHAMFERD
 40
0.0
  9
$SKPOLY
 70
     0
  9
$TDCREATE
 40
2454418.385951053
  9
$TDUPDATE
 40
2454420.422829675
  9
$TDINDWG
 40
0.0006036690
  9
$TDUSRTIMER
 40
0.0006036690
  9
$USRTIMER
 70
     1
  9
$ANGBASE
 50
0.0
  9
$ANGDIR
 70
     0
  9
$PDMODE
 70
     0
  9
$PDSIZE
 40
-1.0
  9
$PLINEWID
 40
0.0
  9
$COORDS
 70
     1
  9
$SPLFRAME
 70
     0
  9
$SPLINETYPE
 70
     6
  9
$SPLINESEGS
 70
     8
  9
$ATTDIA
 70
     0
  9
$ATTREQ
 70
     1
  9
$HANDLING
 70
 22529
  9
$HANDSEED
  5
2C9
  9
$SURFTAB1
 70
     6
  9
$SURFTAB2
 70
     6
  9
$SURFTYPE
 70
     6
  9
$SURFU
 70
     6
  9
$SURFV
 70
     6
  9
$UCSNAME
  2

  9
$UCSORG
 10
0.0
 20
0.0
 30
0.0
  9
$UCSXDIR
 10
1.0
 20
0.0
 30
0.0
  9
$UCSYDIR
 10
0.0
 20
1.0
 30
0.0
  9
$PUCSNAME
  2

  9
$PUCSORG
 10
0.0
 20
0.0
 30
0.0
  9
$PUCSXDIR
 10
1.0
 20
0.0
 30
0.0
  9
$PUCSYDIR
 10
0.0
 20
1.0
 30
0.0
  9
$USERI1
 70
     0
  9
$USERI2
 70
     0
  9
$USERI3
 70
     0
  9
$USERI4
 70
     0
  9
$USERI5
 70
     0
  9
$USERR1
 40
0.0
  9
$USERR2
 40
0.0
  9
$USERR3
 40
0.0
  9
$USERR4
 40
0.0
  9
$USERR5
 40
0.0
  9
$WORLDVIEW
 70
     1
  9
$SHADEDGE
 70
     3
  9
$SHADEDIF
 70
    70
  9
$TILEMODE
 70
     1
  9
$MAXACTVP
 70
    64
  9
$PINSBASE
 10
0.0
 20
0.0
 30
0.0
  9
$PLIMCHECK
 70
     0
  9
$PEXTMIN
 10
1.000000000000000E+20
 20
1.000000000000000E+20
 30
1.000000000000000E+20
  9
$PEXTMAX
 10
-1.000000000000000E+20
 20
-1.000000000000000E+20
 30
-1.000000000000000E+20
  9
$PLIMMIN
 10
0.0
 20
0.0
  9
$PLIMMAX
 10
420.0
 20
297.0
  9
$UNITMODE
 70
     0
  9
$VISRETAIN
 70
     1
  9
$PLINEGEN
 70
     0
  9
$PSLTSCALE
 70
     1
  9
$TREEDEPTH
 70
  3020
  9
$PICKSTYLE
 70
     1
  9
$CMLSTYLE
  2
STANDARD
  9
$CMLJUST
 70
     0
  9
$CMLSCALE
 40
20.0
  9
$PROXYGRAPHICS
 70
     1
  9
$MEASUREMENT
 70
     1
  0
ENDSEC
  0
SECTION
  2
CLASSES
  0
CLASS
  1
ACDBDICTIONARYWDFLT
  2
AcDbDictionaryWithDefault
  3
AutoCAD 2000
 90
        0
280
     0
281
     0
  0
CLASS
  1
ACDBPLACEHOLDER
  2
AcDbPlaceHolder
  3
AutoCAD 2000
 90
        0
280
     0
281
     0
  0
CLASS
  1
LAYOUT
  2
AcDbLayout
  3
AutoCAD 2000
 90
        0
280
     0
281
     0
  0
CLASS
  1
DICTIONARYVAR
  2
AcDbDictionaryVar
  3
AutoCAD 2000
 90
        0
280
     0
281
     0
  0
CLASS
  1
LONG_TRANSACTION
  2
AcDbLongTransaction
  3
AutoCAD 2000
 90
        0
280
     0
281
     0
  0
CLASS
  1
LWPOLYLINE
  2
AcDbPolyline
  3
AutoCAD 2000
 90
        0
280
     0
281
     1
  0
CLASS
  1
HATCH
  2
AcDbHatch
  3
AutoCAD 2000
 90
        0
280
     0
281
     1
  0
CLASS
  1
XRECORD
  2
AcDbXrecord
  3
AutoCAD 2000
 90
        0
280
     0
281
     0
  0
ENDSEC
  0
SECTION
  2
TABLES
  0
TABLE
  2
VPORT
  5
8
330
0
100
AcDbSymbolTable
 70
     3
  0
VPORT
  5
2A1
330
8
100
AcDbSymbolTableRecord
100
AcDbViewportTableRecord
  2
*ACTIVE
 70
     0
 10
0.0
 20
0.0
 11
1.0
 21
1.0
 12
9.287141481131722
 22
9.99771885934486
 13
0.0
 23
0.0
 14
10.0
 24
10.0
 15
10.0
 25
10.0
 16
0.0
 26
0.0
 36
1.0
 17
0.0
 27
0.0
 37
0.0
 40
12.60874517031775
 41
1.981907894736842
 42
50.0
 43
0.0
 44
0.0
 50
0.0
 51
0.0
 71
     0
 72
  2000
 73
     1
 74
     3
 75
     0
 76
     0
 77
     0
 78
     0
  0
ENDTAB
  0
TABLE
  2
LTYPE
  5
5
330
0
100
AcDbSymbolTable
 70
     6
  0
LTYPE
  5
14
330
5
100
AcDbSymbolTableRecord
100
AcDbLinetypeTableRecord
  2
BYBLOCK
 70
     0
  3

 72
    65
 73
     0
 40
0.0
  0
LTYPE
  5
15
330
5
100
AcDbSymbolTableRecord
100
AcDbLinetypeTableRecord
  2
BYLAYER
 70
     0
  3

 72
    65
 73
     0
 40
0.0
  0
LTYPE
  5
16
330
5
100
AcDbSymbolTableRecord
100
AcDbLinetypeTableRecord
  2
CONTINUOUS
 70
     0
  3
Solid line
 72
    65
 73
     0
 40
0.0
  0
ENDTAB
  0
TABLE
  2
LAYER
  5
2
330
0
100
AcDbSymbolTable
 70
     3
  0
LAYER
  5
10
330
2
100
AcDbSymbolTableRecord
100
AcDbLayerTableRecord
  2
0
 70
     0
 62
     7
  6
CONTINUOUS
  0
ENDTAB
  0
TABLE
  2
STYLE
  5
3
330
0
100
AcDbSymbolTable
 70
     4
  0
STYLE
  5
11
330
3
100
AcDbSymbolTableRecord
100
AcDbTextStyleTableRecord
  2
STANDARD
 70
     0
 40
0.0
 41
1.0
 50
0.0
 71
     0
 42
2.5
  3
ARIAL.TTF
  4

1001
ACAD
1000
Arial
1071
       34
  0
ENDTAB
  0
TABLE
  2
VIEW
  5
6
330
0
100
AcDbSymbolTable
 70
     0
  0
ENDTAB
  0
TABLE
  2
UCS
  5
7
330
0
100
AcDbSymbolTable
 70
     0
  0
ENDTAB
  0
TABLE
  2
APPID
  5
9
330
0
100
AcDbSymbolTable
 70
     1
  0
APPID
  5
12
330
9
100
AcDbSymbolTableRecord
100
AcDbRegAppTableRecord
  2
ACAD
 70
     0
  0
ENDTAB
  0
TABLE
  2
DIMSTYLE
  5
A
330
0
100
AcDbSymbolTable
 70
     7
  0
DIMSTYLE
105
27
330
A
100
AcDbSymbolTableRecord
100
AcDbDimStyleTableRecord
  2
ISO-25
 70
     0
  3

  4

  5

  6

  7

 40
1.0
 41
2.5
 42
0.625
 43
3.75
 44
1.25
 45
0.0
 46
0.0
 47
0.0
 48
0.0
140
2.5
141
2.5
142
0.0
143
0.03937007874016
144
1.0
145
0.0
146
1.0
147
0.625
 71
     0
 72
     0
 73
     0
 74
     0
 75
     0
 76
     0
 77
     1
 78
     8
170
     0
171
     3
172
     1
173
     0
174
     0
175
     0
176
     0
177
     0
178
     0
270
     2
271
     2
272
     2
273
     2
274
     3
340
11
275
     0
280
     0
281
     0
282
     0
283
     0
284
     8
285
     0
286
     0
287
     3
288
     0
  0
ENDTAB
  0
TABLE
  2
BLOCK_RECORD
  5
1
330
0
100
AcDbSymbolTable
 70
    27
  0
BLOCK_RECORD
  5
1F
102
{ACAD_XDICTIONARY
360
2C5
102
}
330
1
100
AcDbSymbolTableRecord
100
AcDbBlockTableRecord
  2
*MODEL_SPACE
  0
BLOCK_RECORD
  5
1B
102
{ACAD_XDICTIONARY
360
2C3
102
}
330
1
100
AcDbSymbolTableRecord
100
AcDbBlockTableRecord
  2
*PAPER_SPACE
  0
ENDTAB
  0
ENDSEC
  0
SECTION
  2
BLOCKS
  0
BLOCK
  5
20
330
1F
100
AcDbEntity
  8
0
100
AcDbBlockBegin
  2
*MODEL_SPACE
 70
     0
 10
0.0
 20
0.0
 30
0.0
  3
*MODEL_SPACE
  1

  0
ENDBLK
  5
21
330
1F
100
AcDbEntity
  8
0
100
AcDbBlockEnd
  0
BLOCK
  5
1C
330
1B
100
AcDbEntity
 67
     1
  8
0
100
AcDbBlockBegin
  2
*PAPER_SPACE
 70
     0
 10
0.0
 20
0.0
 30
0.0
  3
*PAPER_SPACE
  1

  0
ENDBLK
  5
1D
330
1B
100
AcDbEntity
 67
     1
  8
0
100
AcDbBlockEnd
  0
ENDSEC
  0
SECTION
  2
ENTITIES
  0
POINT
  5
D6
330
1F
100
AcDbEntity
  8
0
100
AcDbPoint
 10
9.189623880678038
 20
11.86533762918748
 30
0.0
  0
POINT
  5
D7
330
1F
100
AcDbEntity
  8
0
100
AcDbPoint
 10
14.29062164255515
 20
14.60886340546704
 30
0.0
  0
LINE
  5
D8
330
1F
100
AcDbEntity
  8
0
100
AcDbLine
 10
4.283441460373984
 20
10.90676498738261
 30
0.0
 11
7.466552644959126
 21
10.90676498738261
 31
0.0
  0
ARC
  5
D9
330
1F
100
AcDbEntity
  8
0
100
AcDbCircle
 10
7.085354673871337
 20
13.55569956214428
 30
0.0
 40
2.213644884006506
100
AcDbArc
 50
235.0275959366837
 51
275.6215089102046
  0
ARC
  5
DA
330
1F
100
AcDbEntity
  8
0
100
AcDbCircle
 10
12.53820212598244
 20
14.35630771252212
 30
0.0
 40
1.444067249002146
100
AcDbArc
 50
335.3329339756878
 51
29.09870087718359
  0
LINE
  5
DB
330
1F
100
AcDbEntity
  8
0
100
AcDbLine
 10
14.28344146037398
 20
12.90676498738261
 30
0.0
 11
14.28344146037398
 21
16.24009832071594
 31
0.0
  0
LWPOLYLINE
  5
DC
330
1F
100
AcDbEntity
  8
0
100
AcDbPolyline
 90
       24
 70
   128
 43
0.0
 10
13.29500713877478
 20
13.12417055647042
 10
13.25399455719784
 20
13.09967515245408
 10
13.21217159603725
 20
13.07653612496589
 10
13.16960680535106
 20
13.05479177050141
 10
13.12636873519733
 20
13.03448038555618
 10
13.08168131550622
 20
13.01528692789169
 10
13.0363476534585
 20
12.99759778230531
 10
12.99044506816631
 20
12.98144226524754
 10
12.94405087874183
 20
12.96684969316892
 10
12.76120327168537
 20
12.91307918891184
 10
12.57828907258603
 20
12.85953462540232
 10
12.21252713457377
 20
12.75222410650837
 10
11.8056317828087
 20
12.63284549764946
 10
10.72968650568833
 20
12.31717501914983
 10
9.653741228567959
 20
12.00150454065021
 10
8.577795951447583
 20
11.68583406215058
 10
8.21914752574079
 20
11.58061056931737
 10
7.860499100033997
 20
11.47538707648416
 10
7.800763490260418
 20
11.45771061607522
 10
7.741011526199788
 20
11.4400900434238
 10
7.681101116528477
 20
11.42302677323426
 10
7.620725248238584
 20
11.40722458632556
 10
7.559917856244788
 20
11.39311975357428
 10
7.49875059497426
 20
11.38073003178496
  0
LINE
  5
DD
330
1F
100
AcDbEntity
  8
0
100
AcDbLine
 10
7.466552644959126
 20
10.90676498738261
 30
0.0
 11
14.28344146037398
 21
12.90676498738261
 31
0.0
  0
ARC
  5
DE
330
1F
100
AcDbEntity
  8
0
100
AcDbCircle
 10
12.528015029967
 20
14.36086083870859
 30
0.0
 40
1.455224982315704
100
AcDbArc
 50
301.8070822145624
 51
335.3374179515824
  0
ARC
  5
DF
330
1F
100
AcDbEntity
  8
0
100
AcDbCircle
 10
7.067984326833635
 20
13.57406989313677
 30
0.0
 40
2.212657135789681
100
AcDbArc
 50
150.1271649459507
 51
209.8970452195632
  0
LINE
  5
E0
330
1F
100
AcDbEntity
  8
0
100
AcDbLine
 10
4.283441460373984
 20
16.24009832071594
 30
0.0
 11
4.283441460373984
 21
10.90676498738261
 31
0.0
  0
ARC
  5
E1
330
1F
100
AcDbEntity
  8
0
100
AcDbCircle
 10
7.121557418351557
 20
13.60413775844085
 30
0.0
 40
2.274088058895783
100
AcDbArc
 50
209.8810053756352
 51
234.9796836032954
  0
LWPOLYLINE
  5
E2
330
1F
100
AcDbEntity
  8
0
100
AcDbPolyline
 90
       45
 70
   128
 43
0.0
 10
5.815803616399399
 20
15.40581682746899
 10
5.855642722015849
 20
15.43304738750405
 10
5.896067461259554
 20
15.45940111626799
 10
5.947937226378547
 20
15.49141476847261
 10
6.00069138573098
 20
15.52199611649996
 10
6.05426882969198
 20
15.55111176497
 10
6.108608448636678
 20
15.57872831850269
 10
6.163690237381748
 20
15.60483316843227
 10
6.219492412416536
 20
15.62941864459908
 10
6.275950645780883
 20
15.65245848893776
 10
6.333000609514632
 20
15.67392644338298
 10
6.393586447715081
 20
15.69478765664614
 10
6.45477662912892
 20
15.71389446769664
 10
6.516493669000555
 20
15.73122513211079
 10
6.578660082574396
 20
15.74675790546489
 10
6.646867201837417
 20
15.76162294449285
 10
6.715542690274167
 20
15.7743398513889
 10
6.784584092174742
 20
15.7848925302915
 10
6.853888951829234
 20
15.79326488533914
 10
6.910375560974257
 20
15.79830958613051
 10
6.966998089095898
 20
15.80178705687987
 10
7.02370716564397
 20
15.80395361687204
 10
7.080453420068291
 20
15.80506558539181
 10
7.13718748181868
 20
15.805379281724
 10
7.694344855220112
 20
15.805379281724
 10
8.251502228621545
 20
15.805379281724
 10
8.854033339057034
 20
15.805379281724
 10
10.78475816259991
 20
15.805379281724
 10
11.26743936848563
 20
15.805379281724
 10
11.75012057437135
 20
15.805379281724
 10
12.23280178025707
 20
15.805379281724
 10
12.47414238319993
 20
15.805379281724
 10
12.52249948772394
 20
15.80514957928977
 10
12.57087851085855
 20
15.80422559068805
 10
12.61921304202545
 20
15.80225499397023
 10
12.66743667064631
 20
15.79888546718777
 10
12.7154829861428
 20
15.79376468839208
 10
12.75840177958588
 20
15.78763206616359
 10
12.80113605395927
 20
15.7802086976207
 10
12.84362828210671
 20
15.77150637709039
 10
12.88582093687196
 20
15.76153689889961
 10
12.92831257483453
 20
15.75012799276059
 10
12.97045657420518
 20
15.73742471847404
 10
13.0121939732374
 20
15.72344414300164
 10
13.05346581018467
 20
15.70820333330509
  0
LINE
  5
E3
330
1F
100
AcDbEntity
  8
0
100
AcDbLine
 10
14.28344146037398
 20
16.24009832071594
 30
0.0
 11
4.283441460373984
 21
16.24009832071594
 31
0.0
  0
LWPOLYLINE
  5
E4
330
1F
100
AcDbEntity
  8
0
100
AcDbPolyline
 90
       57
 70
   128
 43
0.0
 10
12.97676417112128
 20
13.03482024872495
 10
12.9749220103476
 20
13.03724927057525
 10
12.97107365107087
 20
13.03896000811001
 10
12.96528870408561
 20
13.03993038844067
 10
12.957591475417
 20
13.04015611052996
 10
12.94807199225521
 20
13.03967565968151
 10
12.93689912175984
 20
13.03853108309154
 10
12.92413142716705
 20
13.03677157127458
 10
12.90991113141501
 20
13.03444972943385
 10
12.89450602118281
 20
13.03160947292055
 10
12.87807902903922
 20
13.02822915785166
 10
12.86079659042832
 20
13.02430038802228
 10
12.84298313833765
 20
13.01989691590226
 10
12.82478509028761
 20
13.01504964713235
 10
12.80639531978164
 20
13.00981422504031
 10
12.7881596661942
 20
13.0042891073584
 10
12.77025500942412
 20
12.99852316180828
 10
12.75284593402083
 20
12.99257420200664
 10
12.73625983633467
 20
12.98655410452831
 10
12.72066718507496
 20
12.98051954881968
 10
12.70620154596501
 20
12.97452775139869
 10
12.69313496087609
 20
12.96869139444762
 10
12.68161226827419
 20
12.96306857895993
 10
12.67172095653436
 20
12.95770947362648
 10
12.66364704239148
 20
12.95271486217571
 10
12.65749340462987
 20
12.94813771670186
 10
12.65329159062572
 20
12.94401550192942
 10
12.65112062000173
 20
12.94042574053209
 10
12.65102981305802
 20
12.93741030350315
 10
12.65299121944457
 20
12.93498972773718
 10
12.65696795280886
 20
12.93320953475976
 10
12.66295021447711
 20
12.93209577382636
 10
12.67085370756303
 20
12.93164973862257
 10
12.68052979839532
 20
12.93187981731917
 10
12.69191067405243
 20
12.93279330057782
 10
12.70486519494628
 20
12.93437209302191
 10
12.71914973740573
 20
12.93658650376481
 10
12.73464611965395
 20
12.93942424290757
 10
12.75119114439483
 20
12.94284986612781
 10
12.76847366467823
 20
12.94679895090373
 10
12.78633845397091
 20
12.95124101236866
 10
12.80460865652586
 20
12.95612725333293
 10
12.82294068157231
 20
12.96136578279018
 10
12.84115975843468
 20
12.96691135784352
 10
12.859095312059
 20
12.97270732994894
 10
12.87641004510684
 20
12.97864469962946
 10
12.89292950471668
 20
12.98466802870389
 10
12.90850846841234
 20
12.99071974634421
 10
12.92285348443336
 20
12.99668765410316
 10
12.93578941962859
 20
13.00258436602776
 10
12.94720027869654
 20
13.00839734783423
 10
12.95688311966962
 20
13.01397745752883
 10
12.96472572929722
 20
13.01922220739996
 10
12.97070098135883
 20
13.02405966358147
 10
12.97470557525207
 20
13.02836919921591
 10
12.97663220058667
 20
13.0318841947889
 10
12.97676417112128
 20
13.03482024872495
  0
ARC
  5
E5
330
1F
100
AcDbEntity
  8
0
100
AcDbCircle
 10
9.491509683761231
 20
37.56124002524752
 30
0.0
 40
22.16021057118367
100
AcDbArc
 50
268.2884519077494
 51
269.7493012104076
  0
ARC
  5
E6
330
1F
100
AcDbEntity
  8
0
100
AcDbCircle
 10
8.593704264897551
 20
6.882358741525091
 30
0.0
 40
8.531819982140888
100
AcDbArc
 50
88.41539563115775
 51
89.86864411088284
  0
LINE
  5
E7
330
1F
100
AcDbEntity
  8
0
100
AcDbLine
 10
8.613264236457972
 20
15.41415630213159
 30
0.0
 11
7.710886350107556
 21
15.41690266961137
 31
0.0
  0
LWPOLYLINE
  5
E8
330
1F
100
AcDbEntity
  8
0
100
AcDbPolyline
 90
      106
 70
   128
 43
0.0
 10
7.710886350107556
 20
15.41690266961137
 10
7.710885951136686
 20
15.41690266723253
 10
7.657999184848319
 20
15.41577028525687
 10
7.605134792806643
 20
15.41300806058867
 10
7.552367469736596
 20
15.40862260142594
 10
7.499771910363123
 20
15.40262051596671
 10
7.447422809411166
 20
15.39500841240898
 10
7.39405328198448
 20
15.3855351235715
 10
7.340969620466605
 20
15.37437328179806
 10
7.288249653615186
 20
15.36154349716954
 10
7.235971210187873
 20
15.34706637976683
 10
7.18421211894231
 20
15.33096253967081
 10
7.129679321498698
 20
15.31202602208256
 10
7.075765219260424
 20
15.29125599886888
 10
7.022559105620238
 20
15.2686900237739
 10
6.970150273970896
 20
15.24436565054181
 10
6.91862801770515
 20
15.21832043291677
 10
6.866536181484351
 20
15.18972031066677
 10
6.815410904094765
 20
15.15932046800276
 10
6.76534073209406
 20
15.12717738580376
 10
6.716414212039908
 20
15.0933475449488
 10
6.668719890489978
 20
15.0578874263169
 10
6.623836660865345
 20
15.02209554368415
 10
6.580125524562889
 20
14.98480661827843
 10
6.537654590274353
 20
14.94608532534378
 10
6.496491966691482
 20
14.90599634012427
 10
6.456705762506019
 20
14.86460433786395
 10
6.417235503762534
 20
14.82067769226174
 10
6.379246660341518
 20
14.77539566868204
 10
6.342799474076232
 20
14.72884011697429
 10
6.307954186799944
 20
14.68109288698794
 10
6.274771040345918
 20
14.63223582857244
 10
6.244198029455526
 20
14.5838175186485
 10
6.215205035185498
 20
14.53438219485913
 10
6.187835197031761
 20
14.48401120524104
 10
6.162131654490248
 20
14.43278589783095
 10
6.13813754705689
 20
14.38078762066559
 10
6.115261097619056
 20
14.32653874457854
 10
6.09420034062399
 20
14.27150513015794
 10
6.074988546073338
 20
14.21578059488739
 10
6.05765898396875
 20
14.15945895625052
 10
6.042244924311872
 20
14.10263403173096
 10
6.029108978952947
 20
14.04695268792974
 10
6.017783429306746
 20
13.99082802008166
 10
6.008283285503918
 20
13.93434963850451
 10
6.000623557675115
 20
13.8776071535161
 10
5.994819255950984
 20
13.82069017543419
 10
5.990795507056468
 20
13.76202684123376
 10
5.988736490796446
 20
13.70321198341916
 10
5.988640405772162
 20
13.64434410920685
 10
5.990505450584858
 20
13.58552172581323
 10
5.994329823835781
 20
13.52684334045475
 10
5.999950375232416
 20
13.4697876994633
 10
6.007434767535979
 20
13.41290026802649
 10
6.016767298521409
 20
13.3562709728566
 10
6.027932265963649
 20
13.29998974066592
 10
6.040913967637644
 20
13.24414649816674
 10
6.056150531346026
 20
13.18722249351718
 10
6.073298096992075
 20
13.13079289809094
 10
6.092325969236258
 20
13.07495198708024
 10
6.113203452739044
 20
13.01979403567731
 10
6.135899852160907
 20
12.96541331907436
 10
6.159778879645633
 20
12.9131508908685
 10
6.185370805133968
 20
12.86165451147277
 10
6.212633638592189
 20
12.81100603558319
 10
6.241525389986581
 20
12.76128731789576
 10
6.272004069283424
 20
12.71258021310649
 10
6.304987699687042
 20
12.66357935850923
 10
6.339630404161654
 20
12.61567594566739
 10
6.375870642430822
 20
12.56894909449318
 10
6.413646874218113
 20
12.52347792489881
 10
6.452897559247093
 20
12.47934155679649
 10
6.492700078097469
 20
12.43749155566315
 10
6.533895552194933
 20
12.39694605262052
 10
6.576414276860496
 20
12.35776853954281
 10
6.620186547415171
 20
12.32002250830424
 10
6.665142659179966
 20
12.28377145077902
 10
6.71261286659711
 20
12.24805826583986
 10
6.761312018089052
 20
12.21395209329416
 10
6.81115440747773
 20
12.18151055423381
 10
6.862054328585089
 20
12.15079126975073
 10
6.91392607523307
 20
12.12185186093682
 10
6.965445708372065
 20
12.09535102378111
 10
7.017860688935996
 20
12.07055859767086
 10
7.071083743841491
 20
12.04751582746367
 10
7.125027600005175
 20
12.0262639580171
 10
7.179604984343677
 20
12.00684423418871
 10
7.236426028712078
 20
11.98878004560923
 10
7.293884115404241
 20
11.97266623740796
 10
7.351876869288992
 20
11.95853022700378
 10
7.410301915235151
 20
11.94639943181559
 10
7.469056878111541
 20
11.93630126926226
 10
7.52659103067608
 20
11.92843039254622
 10
7.584405603002745
 20
11.92249749495396
 10
7.642402153561668
 20
11.91850878397205
 10
7.700482240822973
 20
11.91647046708707
 10
7.758547423256787
 20
11.91638875178558
 10
7.818312292528692
 20
11.91835902060474
 10
7.878025387758345
 20
11.9224115710108
 10
7.937579032767369
 20
11.9285353600377
 10
7.996865551377388
 20
11.93671934471938
 10
8.055777267410023
 20
11.9469524820898
 10
8.106186026421827
 20
11.95740379912346
 10
8.156270294731694
 20
11.96936145441519
 10
8.20596251466368
 20
11.98281038379334
 10
8.205962898856441
 20
11.98281049398372
  0
LINE
  5
E9
330
1F
100
AcDbEntity
  8
0
100
AcDbLine
 10
8.205962898856441
 20
11.98281049398372
 30
0.0
 11
9.059568289060347
 21
12.23595633444021
 31
0.0
  0
ARC
  5
EA
330
1F
100
AcDbEntity
  8
0
100
AcDbCircle
 10
6.586259137919832
 20
20.59888817173896
 30
0.0
 40
8.721002641463908
100
AcDbArc
 50
286.4754067478596
 51
287.8270616324427
  0
ARC
  5
EB
330
1F
100
AcDbEntity
  8
0
100
AcDbCircle
 10
16.55819313080148
 20
-10.25177413959538
 30
0.0
 40
23.70126891644175
100
AcDbArc
 50
106.6021813971023
 51
107.9439566164317
  0
LWPOLYLINE
  5
EC
330
1F
100
AcDbEntity
  8
0
100
AcDbPolyline
 90
       10
 70
   128
 43
0.0
 10
9.786151553896912
 20
12.46142909399023
 10
10.52105244809665
 20
12.67940384567835
 10
11.25598143706258
 20
12.89731433536402
 10
11.50097144672065
 20
12.96994533047908
 10
11.74597305613694
 20
13.04256250141707
 10
11.99100110678567
 20
13.11511544073006
 10
12.23607044014102
 20
13.1875537409701
 10
12.48119589767722
 20
13.25982699468927
 10
12.72639232086847
 20
13.33188479443961
 10
12.72639270469724
 20
13.33188490702489
  0
ARC
  5
ED
330
1F
100
AcDbEntity
  8
0
100
AcDbCircle
 10
12.42754047423897
 20
14.34120069295258
 30
0.0
 40
1.052630519875187
100
AcDbArc
 50
286.4936993625022
 51
89.85740742181695
  0
LWPOLYLINE
  5
EE
330
1F
100
AcDbEntity
  8
0
100
AcDbPolyline
 90
        9
 70
   128
 43
0.0
 10
12.43016016361289
 20
15.39382795300254
 10
12.43015976365375
 20
15.39382795297773
 10
12.23570947238261
 20
15.39390313031597
 10
12.04126407455474
 20
15.39413121024645
 10
11.84681232600099
 20
15.39447480402069
 10
11.65236712090981
 20
15.39489595122948
 10
11.08789589063655
 20
15.39633197149264
 10
10.52344297843584
 20
15.39792794327847
 10
9.394547563905245
 20
15.40124158421613
  0
ARC
  5
EF
330
1F
100
AcDbEntity
  8
0
100
AcDbCircle
 10
7.117082978064122
 20
13.54799969572782
 30
0.0
 40
2.268217906658341
100
AcDbArc
 50
125.0087279128328
 51
150.1738601758976
  0
ARC
  5
F0
330
1F
100
AcDbEntity
  8
0
100
AcDbCircle
 10
12.52820146757357
 20
14.35080950190697
 30
0.0
 40
1.455479523434225
100
AcDbArc
 50
29.09636919397815
 51
68.84529057066943
  0
ARC
  5
F1
330
1F
100
AcDbEntity
  8
0
100
AcDbCircle
 10
7.082924937869044
 20
13.59351943835938
 30
0.0
 40
2.251521249056953
100
AcDbArc
 50
275.5887667182093
 51
280.6428572368145
  0
LWPOLYLINE
  5
F2
330
1F
100
AcDbEntity
  8
0
100
AcDbPolyline
 90
       23
 70
   128
 43
0.0
 10
12.96549557931479
 20
13.01984546407398
 10
12.9635326273804
 20
13.01990397793874
 10
12.9540115454478
 20
13.01942776154219
 10
12.94283704732227
 20
13.01828731359785
 10
12.9300682507009
 20
13.01653109545228
 10
12.91584728437829
 20
13.01421125649293
 10
12.90044194085229
 20
13.01137165403239
 10
12.88401440605684
 20
13.00799118586186
 10
12.86673140337209
 20
13.00406223867225
 10
12.84891739373779
 20
12.99965857221008
 10
12.83071930149814
 20
12.99481123152551
 10
12.81232952761954
 20
12.9895757485759
 10
12.79409391153987
 20
12.98405058223805
 10
12.77618933337272
 20
12.97828460087113
 10
12.75878037635571
 20
12.97233561825241
 10
12.7421944346128
 20
12.96631551138585
 10
12.72660197588667
 20
12.96028095999635
 10
12.71213656357476
 20
12.95428918037123
 10
12.69907023528316
 20
12.94845285435809
 10
12.68754782743878
 20
12.94283008283853
 10
12.67765682533899
 20
12.93747103390754
 10
12.66958323989554
 20
12.93247649023283
 10
12.66863974908644
 20
12.93177468380941
  0
LWPOLYLINE
  5
F3
330
1F
100
AcDbEntity
  8
0
100
AcDbPolyline
 90
      111
 70
   128
 43
0.0
 10
8.940242420608859
 20
12.61540982007658
 10
8.617634493943249
 20
12.51973697678047
 10
8.295026567277639
 20
12.42406413348436
 10
8.133722603944834
 20
12.3762277118363
 10
8.093323290568781
 20
12.36437978986888
 10
8.052769835961376
 20
12.35303398446595
 10
8.011991388181096
 20
12.34259224283043
 10
7.970917095286407
 20
12.33345651216522
 10
7.926688245691925
 20
12.32527299149875
 10
7.882173568152552
 20
12.31856583207566
 10
7.837447709498452
 20
12.31334438744898
 10
7.792585316559796
 20
12.30961801117178
 10
7.74766103616675
 20
12.30739605679711
 10
7.701371451439142
 20
12.30668227835575
 10
7.655043767533833
 20
12.30755735093095
 10
7.608759491421766
 20
12.31001742961632
 10
7.562600130073884
 20
12.31405866950547
 10
7.516647190461135
 20
12.319677225692
 10
7.472081472021463
 20
12.32667273346858
 10
7.427737622189825
 20
12.33516225720395
 10
7.383688643687295
 20
12.34512730111028
 10
7.340007539234949
 20
12.35654936939977
 10
7.296767311553862
 20
12.36940996628462
 10
7.25273827713238
 20
12.38415080838596
 10
7.209203512053649
 20
12.40041109859169
 10
7.16623798522072
 20
12.41815786979156
 10
7.123916665536652
 20
12.43735815487534
 10
7.082314521904501
 20
12.45797898673282
 10
7.042497745616644
 20
12.47942732373486
 10
7.003386156504477
 20
12.50221177428546
 10
6.965043648213977
 20
12.52629223333923
 10
6.92753411439112
 20
12.55162859585079
 10
6.89092144868189
 20
12.57818075677474
 10
6.854188795124493
 20
12.60677056126593
 10
6.818425123170444
 20
12.6366281747781
 10
6.783692393312093
 20
12.66769992966608
 10
6.750052566041787
 20
12.69993215828473
 10
6.717567601851878
 20
12.73327119298889
 10
6.687136799161169
 20
12.76669882134906
 10
6.657809392517663
 20
12.8011481709945
 10
6.629632036455326
 20
12.8365607629538
 10
6.602651385508126
 20
12.87287811825553
 10
6.576914094210028
 20
12.91004175792825
 10
6.551740870601202
 20
12.9491595770849
 10
6.52790175127853
 20
12.98915226492616
 10
6.505434559112941
 20
13.02994756957123
 10
6.484377116975373
 20
13.07147323913931
 10
6.464767247736753
 20
13.11365702174959
 10
6.447111318465016
 20
13.15526464041773
 10
6.430836157009064
 20
13.19747188185391
 10
6.415965533484745
 20
13.24020777023469
 10
6.40252321800791
 20
13.28340132973666
 10
6.390532980694413
 20
13.32698158453637
 10
6.379718043705256
 20
13.37221748657484
 10
6.37044765527959
 20
13.41783682758531
 10
6.36273631011784
 20
13.46375932220082
 10
6.356598502920437
 20
13.50990468505439
 10
6.35204872838781
 20
13.55619263077904
 10
6.349157038863953
 20
13.60118843231978
 10
6.347755662036842
 20
13.64629254976717
 10
6.347846164303924
 20
13.69143065927196
 10
6.349430112062645
 20
13.73652843698493
 10
6.352509071710453
 20
13.78151155905683
 10
6.357240176671307
 20
13.82766067232957
 10
6.363549452757776
 20
13.87366146908636
 10
6.371423097025089
 20
13.91943415462052
 10
6.380847306528483
 20
13.96489893422537
 10
6.391808278323191
 20
14.00997601319419
 10
6.40390864812416
 20
14.05330443380787
 10
6.417451974920506
 20
14.09624243190211
 10
6.432412418051271
 20
14.13872055406897
 10
6.448764136855497
 20
14.18066934690056
 10
6.466481290672229
 20
14.22201935698895
 10
6.486135389104092
 20
14.26392385344135
 10
6.507227971717226
 20
14.30516827444558
 10
6.529719785811992
 20
14.34568185598762
 10
6.55357157868876
 20
14.38539383405345
 10
6.578744097647898
 20
14.42423344462905
 10
6.6044104041302
 20
14.4610502367853
 10
6.631303749008725
 20
14.49702641443123
 10
6.659379271309393
 20
14.53210314397855
 10
6.688592110058122
 20
14.56622159183901
 10
6.718897404280836
 20
14.59932292442433
 10
6.751210539228555
 20
14.63230707726066
 10
6.784658684588745
 20
14.66419780209954
 10
6.81918267494118
 20
14.69494026102522
 10
6.854723344865633
 20
14.72447961612196
 10
6.891221528941876
 20
14.752761029474
 10
6.927605996352561
 20
14.77903149553174
 10
6.964874676138389
 20
14.80409788553561
 10
7.00296430259147
 20
14.82792133959219
 10
7.041811610003911
 20
14.85046299780805
 10
7.081353332667823
 20
14.87168400028975
 10
7.122760086824301
 20
14.89212964888879
 10
7.16488087114847
 20
14.91115900326331
 10
7.207640100552205
 20
14.92874231906029
 10
7.250962189947374
 20
14.94484985192671
 10
7.294771554245851
 20
14.95945185750954
 10
7.339314377536329
 20
14.97261297287642
 10
7.384310611312622
 20
14.98423917024037
 10
7.429680160323948
 20
14.99430940751284
 10
7.475342929319525
 20
15.00280264260529
 10
7.521272059025211
 20
15.00971144456613
 10
7.56743926731559
 20
15.01503705027221
 10
7.613762285766209
 20
15.01877141283775
 10
7.660158845952615
 20
15.02090648537692
 10
7.709611576484537
 20
15.02174541338375
 10
7.759077069252522
 20
15.02173001295101
 10
7.808547599326084
 20
15.02132197926839
 10
7.858015441774742
 20
15.02098300752559
 10
8.605265835979352
 20
15.01870876719574
  0
ARC
  5
F4
330
1F
100
AcDbEntity
  8
0
100
AcDbCircle
 10
15.43752692102392
 20
-45.10935976575333
 30
0.0
 40
60.42061549200393
100
AcDbArc
 50
95.74748952792715
 51
96.34946816163086
  0
ARC
  5
F5
330
1F
100
AcDbEntity
  8
0
100
AcDbCircle
 10
-3.502721388631782
 20
84.04982478419189
 30
0.0
 40
72.42045708996679
100
AcDbArc
 50
279.9879776665457
 51
280.4782332115481
  0
ARC
  5
F6
330
1F
100
AcDbEntity
  8
0
100
AcDbCircle
 10
7.3446435125395
 20
12.41030554169877
 30
0.0
 40
2.897056442173319
100
AcDbArc
 50
60.85745755880446
 51
64.20585924453806
  0
LWPOLYLINE
  5
F7
330
1F
100
AcDbEntity
  8
0
100
AcDbPolyline
 90
       71
 70
   128
 43
0.0
 10
9.38673664888436
 20
15.00751568128871
 10
9.95161742518888
 20
15.00612834619438
 10
10.51650234041633
 20
15.00495646990706
 10
11.08139831637447
 20
15.00435393505279
 10
11.64631227487105
 20
15.00467462425762
 10
11.94157698472146
 20
15.005350060179
 10
12.08921554265128
 20
15.00578944845374
 10
12.23685819411056
 20
15.00617400189972
 10
12.3845168889681
 20
15.00637141034259
 10
12.41412902467438
 20
15.00628698548504
 10
12.44376713031439
 20
15.00578732786225
 10
12.47336700995186
 20
15.00454125351201
 10
12.50286446765054
 20
15.0022175784721
 10
12.53219530747417
 20
14.99848511878032
 10
12.56886184963017
 20
14.99169892883648
 10
12.6052001300587
 20
14.98282205218953
 10
12.64104336918982
 20
14.9719117029431
 10
12.67622478745357
 20
14.9590250952008
 10
12.71057760528
 20
14.94421944306624
 10
12.74393504309916
 20
14.92755196064305
 10
12.77626894314596
 20
14.90901597257418
 10
12.80760353733823
 20
14.88862078441672
 10
12.83780027315468
 20
14.86647456757157
 10
12.86672059807397
 20
14.84268549343962
 10
12.8942259595748
 20
14.81736173342177
 10
12.92017780513584
 20
14.79061145891892
 10
12.94454884306921
 20
14.76243579642788
 10
12.96736331632475
 20
14.7328373766501
 10
12.9885259244052
 20
14.70196379181452
 10
13.00794136681329
 20
14.66996263415011
 10
13.02551434305175
 20
14.63698149588582
 10
13.04114955262332
 20
14.60316796925061
 10
13.05482964702217
 20
14.56851133377911
 10
13.0665690309145
 20
14.53302642476085
 10
13.0763264254009
 20
14.49688423925582
 10
13.08406055158193
 20
14.460255774324
 10
13.0897301305582
 20
14.42331202702535
 10
13.09329388343027
 20
14.38622399441985
 10
13.09473274074272
 20
14.34897162475264
 10
13.09406408250103
 20
14.31157985466112
 10
13.09130555791274
 20
14.27422395646176
 10
13.08647481618533
 20
14.23707920247104
 10
13.07958950652634
 20
14.20032086500543
 10
13.07066727814326
 20
14.16412421638141
 10
13.05968981797579
 20
14.12849324891241
 10
13.04667858743502
 20
14.09342823457076
 10
13.03170806812334
 20
14.05908865341294
 10
13.01485274164313
 20
14.02563398549544
 10
12.99618708959678
 20
13.99322371087474
 10
12.97578559358667
 20
13.9620173096073
 10
12.95294128601407
 20
13.93114639834464
 10
12.92825924264399
 20
13.90155659064002
 10
12.90187435482531
 20
13.87338501143597
 10
12.87392151390693
 20
13.84676878567506
 10
12.84453561123773
 20
13.8218450382998
 10
12.81385153816661
 20
13.79875089425273
 10
12.78236755522206
 20
13.77779923174273
 10
12.74971807960087
 20
13.7586539388608
 10
12.71605993006298
 20
13.74141080636648
 10
12.6893861939869
 20
13.7294955648576
 10
12.66217359262775
 20
13.71879699662188
 10
12.634545824886
 20
13.709184511618
 10
12.60662658966215
 20
13.70052751980465
 10
12.3616333306863
 20
13.62881821483767
 10
12.11657851872838
 20
13.55734521843047
 10
11.87150243861574
 20
13.48597072661506
 10
11.62644537517571
 20
13.41455693542348
 10
11.38144761323564
 20
13.34296604088775
 10
11.13654943762287
 20
13.2710602390399
 10
10.40209714316592
 20
13.05431030223082
 10
9.667805730659454
 20
12.83704629240899
  0
ARC
  5
F8
330
1F
100
AcDbEntity
  8
0
100
AcDbCircle
 10
7.024332312318441
 20
14.75574891715206
 30
0.0
 40
2.872588204654345
100
AcDbArc
 50
311.8330998440603
 51
315.0687193585339
  0
ARC
  5
F9
330
1F
100
AcDbEntity
  8
0
100
AcDbCircle
 10
7.619275709547449
 20
13.65784374144786
 30
0.0
 40
1.713608444978313
100
AcDbArc
 50
327.0961997471794
 51
48.46799609010633
  0
ARC
  5
FA
330
1F
100
AcDbEntity
  8
0
100
AcDbCircle
 10
7.655651551349447
 20
13.67991202467923
 30
0.0
 40
2.181556115242095
100
AcDbArc
 50
337.2718115042463
 51
37.48531747302075
  0
CIRCLE
  5
FB
330
1F
100
AcDbEntity
  8
0
100
AcDbCircle
 10
12.41677479370731
 20
14.33965402321957
 30
0.0
 40
0.3665179007108019
  0
CIRCLE
  5
FC
330
1F
100
AcDbEntity
  8
0
100
AcDbCircle
 10
12.41677479370731
 20
14.33965402321957
 30
0.0
 40
0.1699999999999999
  0
LINE
  5
1AD
330
1F
100
AcDbEntity
  8
0
100
AcDbLine
 10
8.68909073782143
 20
4.012952587458429
 30
0.0
 11
8.488305020441238
 21
3.842736026742796
 31
0.0
  0
LINE
  5
1AE
330
1F
100
AcDbEntity
  8
0
100
AcDbLine
 10
8.488305020441238
 20
3.842736026742796
 30
0.0
 11
6.600783321263822
 21
3.881448070366538
 31
0.0
  0
LINE
  5
1AF
330
1F
100
AcDbEntity
  8
0
100
AcDbLine
 10
6.431654820445997
 20
4.058101305799037
 30
0.0
 11
6.600783321263822
 21
3.881448070366538
 31
0.0
  0
LINE
  5
1B0
330
1F
100
AcDbEntity
  8
0
100
AcDbLine
 10
11.76543086298804
 20
3.755709841915422
 30
0.0
 11
9.682534905512753
 21
3.788436419883733
 31
0.0
  0
LINE
  5
1B1
330
1F
100
AcDbEntity
  8
0
100
AcDbLine
 10
9.552801812836877
 20
3.925587423835586
 30
0.0
 11
9.682534905512753
 21
3.788436419883733
 31
0.0
  0
LINE
  5
1B2
330
1F
100
AcDbEntity
  8
0
100
AcDbLine
 10
11.90083617125759
 20
3.878024348124258
 30
0.0
 11
11.76543086298804
 21
3.755709841915422
 31
0.0
  0
ARC
  5
1B3
330
1F
100
AcDbEntity
  8
0
100
AcDbCircle
 10
12.81409171939361
 20
6.589043175248756
 30
0.0
 40
0.1706677856974959
100
AcDbArc
 50
249.0771012767363
 51
38.96067015314624
  0
LWPOLYLINE
  5
1B5
330
1F
100
AcDbEntity
  8
0
100
AcDbPolyline
 90
        3
 70
   128
 43
0.0
 10
4.927730397337256
 20
6.722376508582089
 10
5.424746300841655
 20
5.572598208759316
 10
5.968871395562698
 20
4.313827948877406
  0
LWPOLYLINE
  5
1B6
330
1F
100
AcDbEntity
  8
0
100
AcDbPolyline
 90
        3
 70
   128
 43
0.0
 10
13.50112124299697
 20
4.225987359079286
 10
13.7505988861254
 20
5.577189415347449
 10
13.96205183064278
 20
6.722376508582088
  0
ARC
  5
1B7
330
1F
100
AcDbEntity
  8
0
100
AcDbCircle
 10
6.355604020149455
 20
4.481039913379727
 30
0.0
 40
0.4213333338104305
100
AcDbArc
 50
203.3819572959209
 51
268.8542366900187
  0
ARC
  5
1B8
330
1F
100
AcDbEntity
  8
0
100
AcDbCircle
 10
8.930487881828101
 20
3.212302652643391
 30
0.0
 40
0.7956336843423634
100
AcDbArc
 50
79.9461534451488
 51
89.32757153772952
  0
ARC
  5
1B9
330
1F
100
AcDbEntity
  8
0
100
AcDbCircle
 10
9.787056069234656
 20
7.754376667494778
 30
0.0
 40
3.826403607919481
100
AcDbArc
 50
259.1903146018641
 51
267.357799231814
  0
ARC
  5
1BA
330
1F
100
AcDbEntity
  8
0
100
AcDbCircle
 10
13.08683958759991
 20
4.302369991536459
 30
0.0
 40
0.4211768425233381
100
AcDbArc
 50
271.1089024311053
 51
349.5533920816736
  0
ARC
  5
1BB
330
1F
100
AcDbEntity
  8
0
100
AcDbCircle
 10
11.87529470407331
 20
100.2813995986119
 30
0.0
 40
96.38383690834379
100
AcDbArc
 50
268.5104068769213
 51
268.7239519878939
  0
ARC
  5
1BC
330
1F
100
AcDbEntity
  8
0
100
AcDbCircle
 10
9.360455943547068
 20
-2.917555486198097
 30
0.0
 40
6.854159762437294
100
AcDbArc
 50
86.97176552382595
 51
87.90863277705119
  0
LINE
  5
1BD
330
1F
100
AcDbEntity
  8
0
100
AcDbLine
 10
9.734393234318034
 20
3.921353206863122
 30
0.0
 11
12.04232362677734
 21
3.875194599013935
 31
0.0
  0
LINE
  5
1BE
330
1F
100
AcDbEntity
  8
0
100
AcDbLine
 10
12.79122596063728
 20
3.875194599013935
 30
0.0
 11
13.09499265033057
 21
3.881269932807802
 31
0.0
  0
ARC
  5
1BF
330
1F
100
AcDbEntity
  8
0
100
AcDbCircle
 10
12.41677479370731
 20
4.32854912208036
 30
0.0
 40
0.5880000000000024
100
AcDbArc
 50
286.8050184659896
 51
309.5552288032999
  0
ARC
  5
1C0
330
1F
100
AcDbEntity
  8
0
100
AcDbCircle
 10
12.41677479370731
 20
4.32854912208036
 30
0.0
 40
0.5880000000000005
100
AcDbArc
 50
230.4447711967019
 51
253.1949815340119
  0
ARC
  5
1C1
330
1F
100
AcDbEntity
  8
0
100
AcDbCircle
 10
9.502947858247678
 20
7.827245952293357
 30
0.0
 40
3.899644314134516
100
AcDbArc
 50
258.9021790046759
 51
267.4566375674711
  0
LWPOLYLINE
  5
1C2
330
1F
100
AcDbEntity
  8
0
100
AcDbPolyline
 90
        3
 70
   128
 43
0.0
 10
9.339594746057674
 20
3.931112551319229
 10
9.362063543926819
 20
3.930346550902531
 10
9.36985907032194
 20
3.930183429383077
  0
ARC
  5
1C3
330
1F
100
AcDbEntity
  8
0
100
AcDbCircle
 10
8.591964831148379
 20
3.110653914180147
 30
0.0
 40
0.9040608845166905
100
AcDbArc
 50
79.78440972810033
 51
89.18348673105109
  0
LINE
  5
1C4
330
1F
100
AcDbEntity
  8
0
100
AcDbLine
 10
4.283441460373984
 20
6.722376508582089
 30
0.0
 11
4.283441460373984
 21
6.955709841915422
 31
0.0
  0
LINE
  5
1C5
330
1F
100
AcDbEntity
  8
0
100
AcDbLine
 10
7.466552644959126
 20
6.722376508582088
 30
0.0
 11
7.466552644959126
 21
6.955709841915422
 31
0.0
  0
LINE
  5
1C6
330
1F
100
AcDbEntity
  8
0
100
AcDbLine
 10
7.466552644959126
 20
6.722376508582088
 30
0.0
 11
4.283441460373984
 21
6.722376508582089
 31
0.0
  0
LINE
  5
1C7
330
1F
100
AcDbEntity
  8
0
100
AcDbLine
 10
4.283441460373984
 20
6.955709841915422
 30
0.0
 11
7.466552644959126
 21
6.955709841915422
 31
0.0
  0
LINE
  5
1C8
330
1F
100
AcDbEntity
  8
0
100
AcDbLine
 10
14.28344146037398
 20
6.722376508582089
 30
0.0
 11
14.28344146037398
 21
6.955709841915422
 31
0.0
  0
LINE
  5
1C9
330
1F
100
AcDbEntity
  8
0
100
AcDbLine
 10
14.28344146037398
 20
6.722376508582089
 30
0.0
 11
7.466552644959126
 21
6.722376508582088
 31
0.0
  0
LINE
  5
1CA
330
1F
100
AcDbEntity
  8
0
100
AcDbLine
 10
7.466552644959126
 20
6.955709841915422
 30
0.0
 11
14.28344146037398
 21
6.955709841915422
 31
0.0
  0
LWPOLYLINE
  5
1CB
330
1F
100
AcDbEntity
  8
0
100
AcDbPolyline
 90
       38
 70
   128
 43
0.0
 10
12.98270837929159
 20
6.58607432911871
 10
12.98086612084686
 20
6.567243050392593
 10
12.97701718747487
 20
6.548575066286997
 10
12.97123123702012
 20
6.530423181317362
 10
12.9635326273804
 20
6.512971440363038
 10
12.9540115454478
 20
6.496378400543481
 10
12.94283704732227
 20
6.480960363871439
 10
12.9300682507009
 20
6.466878778779343
 10
12.91584728437829
 20
6.454264022434117
 10
12.90044194085229
 20
6.443354009171817
 10
12.88401440605684
 20
6.434278992980166
 10
12.86673140337209
 20
6.427079869222198
 10
12.84891739373779
 20
6.421891790018319
 10
12.83071930149814
 20
6.41879080731591
 10
12.81232952761954
 20
6.417782699382342
 10
12.79409391153987
 20
6.418886424769435
 10
12.77618933337272
 20
6.422121066345948
 10
12.75878037635571
 20
6.427426551056075
 10
12.7421944346128
 20
6.434703103564787
 10
12.72660197588667
 20
6.443908688119684
 10
12.71213656357476
 20
6.454929612318569
 10
12.69907023528316
 20
6.467558615851719
 10
12.68754782743878
 20
6.481697283557785
 10
12.67765682533899
 20
6.497191121644085
 10
12.66958323989554
 20
6.513748751853895
 10
12.66342994701116
 20
6.531226475179805
 10
12.65922849057949
 20
6.549446414441817
 10
12.65705788349867
 20
6.56806592412433
 10
12.65696744266959
 20
6.58691222234689
 10
12.65892921424746
 20
6.605804102844901
 10
12.66290630501194
 20
6.624386283526535
 10
12.66888891275559
 20
6.642476379484639
 10
12.67679273747913
 20
6.65991028500176
 10
12.68646913927445
 20
6.676360136770613
 10
12.69785030195035
 20
6.6916545093721
 10
12.71080508353849
 20
6.705664899310689
 10
12.7250898554651
 20
6.718127826164444
 10
12.73120068276579
 20
6.722376508582089
  0
ARC
  5
1CC
330
1F
100
AcDbEntity
  8
0
100
AcDbCircle
 10
12.82324178438701
 20
6.595671458267285
 30
0.0
 40
0.1597551244197125
100
AcDbArc
 50
356.5559397532236
 51
52.47808270280344
  0
LWPOLYLINE
  5
1CD
330
1F
100
AcDbEntity
  8
0
100
AcDbPolyline
 90
        9
 70
   128
 43
0.0
 10
9.792089018855463
 20
4.288233689579183
 10
10.52699108821911
 20
4.273354969771864
 10
11.26191890202113
 20
4.258891235869318
 10
11.62940748456645
 20
4.252013380908303
 10
11.99693334749925
 20
4.245764695940133
 10
12.24200244785813
 20
4.242253252762654
 10
12.48712868914178
 20
4.239787832206274
 10
12.73232978582702
 20
4.238914186557173
 10
12.7323301696558
 20
4.238914186720195
  0
ARC
  5
1CE
330
1F
100
AcDbEntity
  8
0
100
AcDbCircle
 10
9.893307735013257
 20
7.624834092218446
 30
0.0
 40
3.338135329101131
100
AcDbArc
 50
259.1001081316842
 51
268.2624148751378
  0
ARC
  5
1CF
330
1F
100
AcDbEntity
  8
0
100
AcDbCircle
 10
9.047422355822671
 20
3.14459353455296
 30
0.0
 40
1.221341295108099
100
AcDbArc
 50
79.87699526032608
 51
89.15163741697748
  0
LINE
  5
1D0
330
1F
100
AcDbEntity
  8
0
100
AcDbLine
 10
8.211900363814994
 20
4.382873057106732
 30
0.0
 11
9.065505754018902
 21
4.365800949305264
 31
0.0
  0
LWPOLYLINE
  5
1D1
330
1F
100
AcDbEntity
  8
0
100
AcDbPolyline
 90
       19
 70
   128
 43
0.0
 10
12.97676417112128
 20
6.589287403354308
 10
12.9749220103476
 20
6.570456392305665
 10
12.97107365107087
 20
6.55178845075526
 10
12.96528870408561
 20
6.533636410005219
 10
12.957591475417
 20
6.516184363999546
 10
12.94807199225521
 20
6.499590904826472
 10
12.93689912175984
 20
6.484172392915446
 10
12.92413142716705
 20
6.470090075493987
 10
12.90991113141501
 20
6.457474764520548
 10
12.89450602118281
 20
6.446564407722779
 10
12.87807902903922
 20
6.437489430036061
 10
12.86079659042832
 20
6.430290231447894
 10
12.84298313833765
 20
6.425101958250897
 10
12.82478509028761
 20
6.422000603831198
 10
12.80639531978164
 20
6.420992118390929
 10
12.7881596661942
 20
6.42209546758133
 10
12.77025500942412
 20
6.42532973789389
 10
12.75284593402083
 20
6.430634859712304
 10
12.73820947574155
 20
6.437055771382057
  0
ARC
  5
1D2
330
1F
100
AcDbEntity
  8
0
100
AcDbCircle
 10
12.81702580485592
 20
6.598852166120732
 30
0.0
 40
0.1600244679538236
100
AcDbArc
 50
356.5733529730067
 51
50.52563493031255
  0
LINE
  5
1D3
330
1F
100
AcDbEntity
  8
0
100
AcDbLine
 10
8.939815839249995
 20
4.007938085430625
 30
0.0
 11
6.347209143248845
 21
4.059790219342721
 31
0.0
  0
ARC
  5
1D4
330
1F
100
AcDbEntity
  8
0
100
AcDbCircle
 10
8.556160650432401
 20
1.256643638709985
 30
0.0
 40
2.758423533735109
100
AcDbArc
 50
85.9390024966393
 51
88.98883426572028
  0
LINE
  5
1D5
330
1F
100
AcDbEntity
  8
0
100
AcDbLine
 10
9.73829103717987
 20
3.921276082850232
 30
0.0
 11
9.729431392412527
 21
3.921456147092028
 31
0.0
  0
LINE
  5
1D6
330
1F
100
AcDbEntity
  8
0
100
AcDbLine
 10
12.04232362677735
 20
3.875194599013935
 30
0.0
 11
12.79122596063728
 21
3.875194599013935
 31
0.0
  0
LINE
  5
1D7
330
1F
100
AcDbEntity
  8
0
100
AcDbLine
 10
12.41677479370731
 20
3.765660145460636
 30
0.0
 11
12.24677479370731
 21
3.765660145460636
 31
0.0
  0
LINE
  5
1D8
330
1F
100
AcDbEntity
  8
0
100
AcDbLine
 10
12.58677479370731
 20
3.765660145460636
 30
0.0
 11
12.41677479370731
 21
3.765660145460636
 31
0.0
  0
LWPOLYLINE
  5
1D9
330
1F
100
AcDbEntity
  8
0
100
AcDbPolyline
 90
       33
 70
   128
 43
0.0
 10
12.7323301696558
 20
4.238914186720193
 10
12.73233055315346
 20
4.238914181050126
 10
12.77377314568736
 20
4.238301662164582
 10
12.81464727019259
 20
4.237697047950708
 10
12.85515140435934
 20
4.237096114261253
 10
12.89494440366317
 20
4.23650308338007
 10
12.93476214600261
 20
4.235906589771743
 10
12.97370027722101
 20
4.235320240150559
 10
13.01195488894206
 20
4.234740535158303
 10
13.04918313158146
 20
4.234171806942313
 10
13.08587899712358
 20
4.233606116199696
 10
13.12138085948602
 20
4.233053907759458
 10
13.15587106492982
 20
4.232512136453522
 10
13.18902273858438
 20
4.231985198184566
 10
13.22148844476912
 20
4.2314623488061
 10
13.25242515768604
 20
4.230957464022932
 10
13.28199554703194
 20
4.230467830595634
 10
13.3098969513313
 20
4.229997846071779
 10
13.33442698378538
 20
4.229577025538286
 10
13.35740597391871
 20
4.22917556321911
 10
13.37893646597636
 20
4.22879167458501
 10
13.39881944193921
 20
4.228428392222453
 10
13.41739425083582
 20
4.228079230950757
 10
13.43417751918941
 20
4.227753609783271
 10
13.44924036417894
 20
4.227450225794211
 10
13.4624290596549
 20
4.227171590919006
 10
13.47335232332141
 20
4.226926731848927
 10
13.48248785636021
 20
4.226706500290922
 10
13.48986266704772
 20
4.226510289453111
 10
13.49539819356509
 20
4.226339500705024
 10
13.49914309975768
 20
4.226191457339171
 10
13.50094960655333
 20
4.226071093732956
 10
13.50088610339356
 20
4.226030776977285
  0
LWPOLYLINE
  5
1DA
330
1F
100
AcDbEntity
  8
0
100
AcDbPolyline
 90
       70
 70
   128
 43
0.0
 10
5.968955217816537
 20
4.313864210065595
 10
5.969457027503327
 20
4.313606386983006
 10
5.971448637470057
 20
4.313338080939961
 10
5.974824900900813
 20
4.313112136637626
 10
5.979413714186213
 20
4.312933597206915
 10
5.985298557276612
 20
4.312794626570994
 10
5.992474386115068
 20
4.312695396318334
 10
6.000998822221305
 20
4.312635625939764
 10
6.010820535984411
 20
4.312616173711583
 10
6.021927438025779
 20
4.312637333459113
 10
6.034585040032753
 20
4.312701115368056
 10
6.048567968050158
 20
4.312807765907149
 10
6.06386098297181
 20
4.312957527825562
 10
6.08057986168124
 20
4.313152191255802
 10
6.098611443196847
 20
4.313390508450711
 10
6.117933676371337
 20
4.313671783976452
 10
6.137867775346583
 20
4.313985370111339
 10
6.1589889486433
 20
4.314340333712838
 10
6.181273933564538
 20
4.314737023983549
 10
6.204872316947871
 20
4.315179411167906
 10
6.22962622286143
 20
4.315665333855156
 10
6.255509914493305
 20
4.316194325254145
 10
6.283089414480675
 20
4.316777586751733
 10
6.311815240066347
 20
4.317404033579103
 10
6.341652653471592
 20
4.318074412573314
 10
6.37280804597347
 20
4.318794952939002
 10
6.405054714480782
 20
4.319561854837292
 10
6.438355242282643
 20
4.320375570007146
 10
6.471692923525797
 20
4.321211594081793
 10
6.505990447584409
 20
4.32209141159385
 10
6.541209573969799
 20
4.323012406946927
 10
6.577580769903146
 20
4.323981041216676
 10
6.614844037997895
 20
4.324992865445841
 10
6.652956964405894
 20
4.32604819272785
 10
6.692742664017464
 20
4.32717241129362
 10
6.733369839643711
 20
4.328343950453119
 10
6.774791574488338
 20
4.329561949098207
 10
6.817295449105673
 20
4.330832550881877
 10
6.86055568067382
 20
4.332144824837304
 10
6.904518776718402
 20
4.333499414443441
 10
6.947752900829819
 20
4.3348531771315
 10
6.991596851091236
 20
4.336248443895099
 10
7.036000928438991
 20
4.337685092536198
 10
7.081256276274164
 20
4.339174683936182
 10
7.127029214226353
 20
4.340705017289021
 10
7.173266842016142
 20
4.342270801141263
 10
7.220970769068518
 20
4.343905906763315
 10
7.269101973976689
 20
4.345578148276962
 10
7.317601658685564
 20
4.347287175742938
 10
7.366805107536107
 20
4.349046973309508
 10
7.416322342243608
 20
4.3508451715405
 10
7.466092146760708
 20
4.352680418276128
 10
7.514444075025965
 20
4.354485352399341
 10
7.562975564791549
 20
4.356314801148853
 10
7.611629455955734
 20
4.358168699680612
 10
7.660724451957707
 20
4.360061379845623
 10
7.709885395137863
 20
4.361979853774579
 10
7.759053877156245
 20
4.363922913832497
 10
7.809300244440951
 20
4.365935806128453
 10
7.859492476098631
 20
4.36797214376999
 10
7.90956788910935
 20
4.370024491533429
 10
7.959874188255851
 20
4.372105713191218
 10
8.009998279760599
 20
4.374200874834366
 10
8.059876561897755
 20
4.376307779394336
 10
8.098139967659538
 20
4.377939134848441
 10
8.136219242099045
 20
4.379576053737701
 10
8.17417138820811
 20
4.381221808720544
 10
8.211899979619827
 20
4.38287304021139
 10
8.211900363814994
 20
4.382873057106731
 10
8.211900363814995
 20
4.382873057106731
  0
LWPOLYLINE
  5
1DB
330
1F
100
AcDbEntity
  8
0
100
AcDbPolyline
 90
       41
 70
   128
 43
0.0
 10
9.262087742448251
 20
4.346921830369548
 10
9.258743532748844
 20
4.331643136366709
 10
9.255240372925966
 20
4.316474201139277
 10
9.251583150832065
 20
4.301436189441645
 10
9.247776969278001
 20
4.286550083354581
 10
9.243827138913239
 20
4.271836653009572
 10
9.239739170816065
 20
4.257316427608889
 10
9.235518768804148
 20
4.243009666781814
 10
9.231171821476168
 20
4.228936332316998
 10
9.226704393995648
 20
4.215116060310379
 10
9.222122719628398
 20
4.201568133767539
 10
9.217433191045444
 20
4.188311455698709
 10
9.212642351403518
 20
4.175364522743973
 10
9.207756885215596
 20
4.162745399365472
 10
9.2027836090242
 20
4.150471692642605
 10
9.197729461890476
 20
4.138560527705406
 10
9.192601495712343
 20
4.127028523840376
 10
9.187406865385188
 20
4.115891771302087
 10
9.182152818818861
 20
4.105165808862952
 10
9.176846686824886
 20
4.094865602132437
 10
9.171495872887993
 20
4.085005522676004
 10
9.16610784283628
 20
4.075599327962907
 10
9.160690114424355
 20
4.066660142170808
 10
9.155250246844044
 20
4.058200437874011
 10
9.149795830177284
 20
4.050232018640861
 10
9.144334474805908
 20
4.042766002564581
 10
9.138873800793117
 20
4.035812806750538
 10
9.133421427251429
 20
4.029382132781567
 10
9.127984961711966
 20
4.023482953181649
 10
9.122571989509904
 20
4.018123498896828
 10
9.117190063200871
 20
4.01331124781081
 10
9.111846692023108
 20
4.009052914311308
 10
9.106549331420058
 20
4.00535443992166
 10
9.101305372638
 20
4.002220985010797
 10
9.096122132413276
 20
3.99965692159314
 10
9.091006842763471
 20
3.997665827228465
 10
9.085966640896797
 20
3.996250480030236
 10
9.081008559253767
 20
3.99541285478939
 10
9.076139515695036
 20
3.995154120218973
 10
9.07136630384913
 20
3.995474637323471
 10
9.069394270499076
 20
3.995781446501607
  0
LINE
  5
1DC
330
1F
100
AcDbEntity
  8
0
100
AcDbLine
 10
9.667431418378674
 20
3.93037082570457
 30
0.0
 11
9.610669998930349
 21
3.932235886152279
 31
0.0
  0
LWPOLYLINE
  5
1DD
330
1F
100
AcDbEntity
  8
0
100
AcDbPolyline
 90
       33
 70
   128
 43
0.0
 10
13.09499048587282
 20
3.88127434886075
 10
13.09449026538934
 20
3.881272563329855
 10
13.09173010409319
 20
3.881269357061286
 10
13.08689644536911
 20
3.88126534472276
 10
13.08000694872563
 20
3.881260538510019
 10
13.07107927367129
 20
3.8812549506188
 10
13.06009507652025
 20
3.881248596696372
 10
13.04707584339388
 20
3.881241505381397
 10
13.03209610051997
 20
3.88123370662698
 10
13.01523037412631
 20
3.881225230386221
 10
12.9965531904407
 20
3.881216106612224
 10
12.97613907569092
 20
3.881206365258093
 10
12.95328055821225
 20
3.881195707200135
 10
12.92858314249433
 20
3.88118444304996
 10
12.90218180238511
 20
3.881172615723389
 10
12.87421151173255
 20
3.881160268136244
 10
12.84480724438459
 20
3.881147443204349
 10
12.81410397418921
 20
3.881134183843526
 10
12.78260015271321
 20
3.881120725237076
 10
12.74993007969829
 20
3.881106895823567
 10
12.71625067242404
 20
3.881092695212137
 10
12.68956009014746
 20
3.881079927241114
 10
12.66233029422909
 20
3.88106609740411
 10
12.63468503413218
 20
3.881054560115449
 10
12.60674805931996
 20
3.881048669789446
 10
12.36171702719618
 20
3.881868841407111
 10
12.11661748915307
 20
3.884140672963028
 10
11.87149263125814
 20
3.887530065491462
 10
11.62638563957889
 20
3.891702920026676
 10
11.38133970018285
 20
3.896325137602939
 10
11.13639799913753
 20
3.901062619254515
 10
10.40183070800993
 20
3.915486650212027
 10
9.667431418378674
 20
3.93037082570457
  0
LWPOLYLINE
  5
1DE
330
1F
100
AcDbEntity
  8
0
100
AcDbPolyline
 90
       10
 70
   128
 43
0.0
 10
9.022260551776323
 20
4.002638112410329
 10
9.014916843824833
 20
4.002787583978498
 10
8.98630299697201
 20
4.003369966433875
 10
8.956574288451028
 20
4.003974940387299
 10
8.925766939461471
 20
4.004601685798878
 10
8.893659569272047
 20
4.005254622724943
 10
8.860496548162716
 20
4.005928707833464
 10
8.826318824491195
 20
4.006623040183387
 10
8.789459017264865
 20
4.007371396008344
 10
8.751507923886508
 20
4.00814138252475
  0
LWPOLYLINE
  5
1DF
330
1F
100
AcDbEntity
  8
0
100
AcDbPolyline
 90
       29
 70
   128
 43
0.0
 10
9.667431418378672
 20
3.93037082570457
 10
9.684343996766525
 20
3.929677993134483
 10
9.700400631708925
 20
3.929002503096786
 10
9.715618605725536
 20
3.928344139733852
 10
9.729963108362612
 20
3.927704954735064
 10
9.747316107824605
 20
3.926903123754518
 10
9.76316411496662
 20
3.926137329783547
 10
9.777533484680471
 20
3.925407543113258
 10
9.790365488873078
 20
3.924718047117128
 10
9.801707561022913
 20
3.924067414015132
 10
9.811483075452219
 20
3.923461101784905
 10
9.819562920423832
 20
3.922909704049273
 10
9.826106424489179
 20
3.922405064491547
 10
9.831329688962634
 20
3.921925962988396
 10
9.834830220172223
 20
3.921502956890789
 10
9.836608164938958
 20
3.921136678354619
 10
9.836649692463959
 20
3.920830001074913
 10
9.835167706193811
 20
3.920602911938961
 10
9.832235880612634
 20
3.920427467376077
 10
9.827857713073125
 20
3.920304348113731
 10
9.821995235126507
 20
3.920233825345452
 10
9.814674925329731
 20
3.92021692823078
 10
9.805904440970234
 20
3.920253719893777
 10
9.795481182735176
 20
3.920346402874164
 10
9.783562895962761
 20
3.920494332699231
 10
9.770161969799117
 20
3.920696894774787
 10
9.755184951554214
 20
3.920955281281843
 10
9.738721049054092
 20
3.921267343249026
 10
9.73829103717987
 20
3.921276082850232
  0
ARC
  5
1E0
330
1F
100
AcDbEntity
  8
0
100
AcDbCircle
 10
9.466893221020503
 20
7.193633002178636
 30
0.0
 40
3.264832764819756
100
AcDbArc
 50
257.3427357542043
 51
268.2951876389002
  0
LWPOLYLINE
  5
1E1
330
1F
100
AcDbEntity
  8
0
100
AcDbPolyline
 90
        7
 70
   128
 43
0.0
 10
8.751507923886508
 20
4.008141382524749
 10
8.751446048096456
 20
4.005443881919265
 10
8.751493861205634
 20
4.003320364500258
 10
8.751651296138499
 20
4.001773809285364
 10
8.751918132034395
 20
4.000806385889585
 10
8.752293994557408
 20
4.000419451481613
 10
8.752305972189709
 20
4.000416999457287
  0
ENDSEC
  0
SECTION
  2
OBJECTS
  0
DICTIONARY
  5
C
330
0
100
AcDbDictionary
  3
ACAD_GROUP
350
D
  3
ACAD_LAYOUT
350
1A
  3
ACAD_MLINESTYLE
350
17
  3
ACAD_PLOTSETTINGS
350
19
  3
ACAD_PLOTSTYLENAME
350
E
  3
ACDBHEADERROUNDTRIPXREC
350
2A2
  3
ACDBVARIABLEDICTIONARY
350
29F
  0
DICTIONARY
  5
2C5
330
1F
100
AcDbDictionary
280
     1
  3
ACAD_LAYOUTSELFREF
360
2C6
  0
DICTIONARY
  5
2C3
330
1B
100
AcDbDictionary
280
     1
  3
ACAD_LAYOUTSELFREF
360
2C4
  0
DICTIONARY
  5
D
102
{ACAD_REACTORS
330
C
102
}
330
C
100
AcDbDictionary
  0
DICTIONARY
  5
1A
102
{ACAD_REACTORS
330
C
102
}
330
C
100
AcDbDictionary
  0
DICTIONARY
  5
17
102
{ACAD_REACTORS
330
C
102
}
330
C
100
AcDbDictionary
  3
STANDARD
350
18
  0
DICTIONARY
  5
19
102
{ACAD_REACTORS
330
C
102
}
330
C
100
AcDbDictionary
  0
ACDBDICTIONARYWDFLT
  5
E
102
{ACAD_REACTORS
330
C
102
}
330
C
100
AcDbDictionary
281
     1
  3
Normal
350
F
100
AcDbDictionaryWithDefault
340
F
  0
DICTIONARY
  5
2A2
102
{ACAD_REACTORS
330
C
102
}
330
C
100
AcDbDictionary
  3
CEPSNTYPE
350
2AC
  3
DIMSTYLEDATA
350
2B0
  3
FINGERPRINTGUID
350
2AD
  3
HYPERLINKBASE
350
2A5
  3
INSUNITS
350
2AB
  3
LAYOUTDICT
350
2A7
  3
LWETCUNION
350
2AA
  3
PLOTSETDICT
350
2A8
  3
PLOTSTYLNAMDICT
350
2A9
  3
PSVPSCALE
350
2AF
  3
PUCSBASE
350
2B3
  3
PUCSORGBACK
350
2B9
  3
PUCSORGBOTTOM
350
2B5
  3
PUCSORGFRONT
350
2B8
  3
PUCSORGLEFT
350
2B6
  3
PUCSORGRIGHT
350
2B7
  3
PUCSORGTOP
350
2B4
  3
PUCSORTHOREF
350
2B1
  3
PUCSORTHOVIEW
350
2B2
  3
STYLESHEET
350
2A6
  3
TSTACKALIGN
350
2A3
  3
TSTACKSIZE
350
2A4
  3
UCSBASE
350
2BC
  3
UCSORGBACK
350
2C2
  3
UCSORGBOTTOM
350
2BE
  3
UCSORGFRONT
350
2C1
  3
UCSORGLEFT
350
2BF
  3
UCSORGRIGHT
350
2C0
  3
UCSORGTOP
350
2BD
  3
UCSORTHOREF
350
2BA
  3
UCSORTHOVIEW
350
2BB
  3
VERSIONGUID
350
2AE
  0
DICTIONARY
  5
29F
102
{ACAD_REACTORS
330
C
102
}
330
C
100
AcDbDictionary
  3
DIMASSOC
350
2A0
  0
XRECORD
  5
2C6
102
{ACAD_REACTORS
330
2C5
102
}
330
2C5
100
AcDbXrecord
340
1F
  0
XRECORD
  5
2C4
102
{ACAD_REACTORS
330
2C3
102
}
330
2C3
100
AcDbXrecord
340
1B
  0
MLINESTYLE
  5
18
102
{ACAD_REACTORS
330
17
102
}
330
17
100
AcDbMlineStyle
  2
STANDARD
 70
     0
  3

 62
   256
 51
90.0
 52
90.0
 71
     2
 49
0.5
 62
   256
  6
BYLAYER
 49
-0.5
 62
   256
  6
BYLAYER
  0
ACDBPLACEHOLDER
  5
F
102
{ACAD_REACTORS
330
E
102
}
330
E
100
AcDbPlaceHolder
280
     0
  0
XRECORD
  5
2AC
102
{ACAD_REACTORS
330
2A2
102
}
330
2A2
100
AcDbXrecord
 90
        0
  0
XRECORD
  5
2B0
102
{ACAD_REACTORS
330
2A2
102
}
330
2A2
100
AcDbXrecord
1000
DSTYLE
1002
{
1070
   278
 70
    44
1002
}
  0
XRECORD
  5
2AD
102
{ACAD_REACTORS
330
2A2
102
}
330
2A2
100
AcDbXrecord
  1
{60714790-7FF2-4BED-A1C9-91CE20AC29F2}
  0
XRECORD
  5
2A5
102
{ACAD_REACTORS
330
2A2
102
}
330
2A2
100
AcDbXrecord
  1

  0
XRECORD
  5
2AB
102
{ACAD_REACTORS
330
2A2
102
}
330
2A2
100
AcDbXrecord
 90
        4
  0
XRECORD
  5
2A7
102
{ACAD_REACTORS
330
2A2
102
}
330
2A2
100
AcDbXrecord
340
1A
  0
XRECORD
  5
2AA
102
{ACAD_REACTORS
330
2A2
102
}
330
2A2
100
AcDbXrecord
 90
    10781
  0
XRECORD
  5
2A8
102
{ACAD_REACTORS
330
2A2
102
}
330
2A2
100
AcDbXrecord
340
19
  0
XRECORD
  5
2A9
102
{ACAD_REACTORS
330
2A2
102
}
330
2A2
100
AcDbXrecord
340
E
  0
XRECORD
  5
2AF
102
{ACAD_REACTORS
330
2A2
102
}
330
2A2
100
AcDbXrecord
 40
0.0
  0
XRECORD
  5
2B3
102
{ACAD_REACTORS
330
2A2
102
}
330
2A2
100
AcDbXrecord
340
0
  0
XRECORD
  5
2B9
102
{ACAD_REACTORS
330
2A2
102
}
330
2A2
100
AcDbXrecord
 10
0.0
 20
0.0
 30
0.0
  0
XRECORD
  5
2B5
102
{ACAD_REACTORS
330
2A2
102
}
330
2A2
100
AcDbXrecord
 10
0.0
 20
0.0
 30
0.0
  0
XRECORD
  5
2B8
102
{ACAD_REACTORS
330
2A2
102
}
330
2A2
100
AcDbXrecord
 10
0.0
 20
0.0
 30
0.0
  0
XRECORD
  5
2B6
102
{ACAD_REACTORS
330
2A2
102
}
330
2A2
100
AcDbXrecord
 10
0.0
 20
0.0
 30
0.0
  0
XRECORD
  5
2B7
102
{ACAD_REACTORS
330
2A2
102
}
330
2A2
100
AcDbXrecord
 10
0.0
 20
0.0
 30
0.0
  0
XRECORD
  5
2B4
102
{ACAD_REACTORS
330
2A2
102
}
330
2A2
100
AcDbXrecord
 10
0.0
 20
0.0
 30
0.0
  0
XRECORD
  5
2B1
102
{ACAD_REACTORS
330
2A2
102
}
330
2A2
100
AcDbXrecord
340
0
  0
XRECORD
  5
2B2
102
{ACAD_REACTORS
330
2A2
102
}
330
2A2
100
AcDbXrecord
 70
     0
  0
XRECORD
  5
2A6
102
{ACAD_REACTORS
330
2A2
102
}
330
2A2
100
AcDbXrecord
  1

  0
XRECORD
  5
2A3
102
{ACAD_REACTORS
330
2A2
102
}
330
2A2
100
AcDbXrecord
 90
        1
  0
XRECORD
  5
2A4
102
{ACAD_REACTORS
330
2A2
102
}
330
2A2
100
AcDbXrecord
 90
       70
  0
XRECORD
  5
2BC
102
{ACAD_REACTORS
330
2A2
102
}
330
2A2
100
AcDbXrecord
340
0
  0
XRECORD
  5
2C2
102
{ACAD_REACTORS
330
2A2
102
}
330
2A2
100
AcDbXrecord
 10
0.0
 20
0.0
 30
0.0
  0
XRECORD
  5
2BE
102
{ACAD_REACTORS
330
2A2
102
}
330
2A2
100
AcDbXrecord
 10
0.0
 20
0.0
 30
0.0
  0
XRECORD
  5
2C1
102
{ACAD_REACTORS
330
2A2
102
}
330
2A2
100
AcDbXrecord
 10
0.0
 20
0.0
 30
0.0
  0
XRECORD
  5
2BF
102
{ACAD_REACTORS
330
2A2
102
}
330
2A2
100
AcDbXrecord
 10
0.0
 20
0.0
 30
0.0
  0
XRECORD
  5
2C0
102
{ACAD_REACTORS
330
2A2
102
}
330
2A2
100
AcDbXrecord
 10
0.0
 20
0.0
 30
0.0
  0
XRECORD
  5
2BD
102
{ACAD_REACTORS
330
2A2
102
}
330
2A2
100
AcDbXrecord
 10
0.0
 20
0.0
 30
0.0
  0
XRECORD
  5
2BA
102
{ACAD_REACTORS
330
2A2
102
}
330
2A2
100
AcDbXrecord
340
0
  0
XRECORD
  5
2BB
102
{ACAD_REACTORS
330
2A2
102
}
330
2A2
100
AcDbXrecord
 70
     0
  0
XRECORD
  5
2AE
102
{ACAD_REACTORS
330
2A2
102
}
330
2A2
100
AcDbXrecord
  1
{808D4B08-5047-4857-9D8C-23AB26CF556F}
  0
DICTIONARYVAR
  5
2A0
102
{ACAD_REACTORS
330
29F
102
}
330
29F
100
DictionaryVariables
280
     0
  1
1
  0
ENDSEC
  0
EOF
