  0
SECTION
  2
HEADER
  9
$ACADVER
  1
AC1014
  9
$ACADMAINTVER
 70
     9
  9
$DWGCODEPAGE
  3
ANSI_1250
  9
$INSBASE
 10
0.0
 20
0.0
 30
0.0
  9
$EXTMIN
 10
5.986607497837974
 20
6.124601860058949
 30
0.0
  9
$EXTMAX
 10
17.98660749783797
 20
18.39317192915368
 30
0.0
  9
$LIMMIN
 10
0.0
 20
0.0
  9
$LIMMAX
 10
0.0
 20
0.0
  9
$ORTHOMODE
 70
     0
  9
$REGENMODE
 70
     1
  9
$FILLMODE
 70
     1
  9
$QTEXTMODE
 70
     0
  9
$MIRRTEXT
 70
     1
  9
$DRAGMODE
 70
     2
  9
$LTSCALE
 40
1.0
  9
$OSMODE
 70
  3007
  9
$ATTMODE
 70
     1
  9
$TEXTSIZE
 40
2.5
  9
$TRACEWID
 40
1.0
  9
$TEXTSTYLE
  7
STANDARD
  9
$CLAYER
  8
0
  9
$CELTYPE
  6
BYLAYER
  9
$CECOLOR
 62
   256
  9
$CELTSCALE
 40
1.0
  9
$DELOBJ
 70
     1
  9
$DISPSILH
 70
     0
  9
$DIMSCALE
 40
1.0
  9
$DIMASZ
 40
0.3
  9
$DIMEXO
 40
0.1
  9
$DIMDLI
 40
3.75
  9
$DIMRND
 40
0.0
  9
$DIMDLE
 40
0.0
  9
$DIMEXE
 40
0.1
  9
$DIMTP
 40
0.0
  9
$DIMTM
 40
0.0
  9
$DIMTXT
 40
0.2822222222222222
  9
$DIMCEN
 40
2.5
  9
$DIMTSZ
 40
0.0
  9
$DIMTOL
 70
     0
  9
$DIMLIM
 70
     0
  9
$DIMTIH
 70
     1
  9
$DIMTOH
 70
     1
  9
$DIMSE1
 70
     0
  9
$DIMSE2
 70
     0
  9
$DIMTAD
 70
     1
  9
$DIMZIN
 70
     0
  9
$DIMBLK
  1

  9
$DIMASO
 70
     1
  9
$DIMSHO
 70
     1
  9
$DIMPOST
  1

  9
$DIMAPOST
  1

  9
$DIMALT
 70
     0
  9
$DIMALTD
 70
     3
  9
$DIMALTF
 40
0.3937007874015748
  9
$DIMLFAC
 40
15.0
  9
$DIMTOFL
 70
     1
  9
$DIMTVP
 40
0.0
  9
$DIMTIX
 70
     0
  9
$DIMSOXD
 70
     0
  9
$DIMSAH
 70
     0
  9
$DIMBLK1
  1

  9
$DIMBLK2
  1

  9
$DIMSTYLE
  2
ISO-25
  9
$DIMCLRD
 70
     0
  9
$DIMCLRE
 70
     0
  9
$DIMCLRT
 70
     0
  9
$DIMTFAC
 40
1.0
  9
$DIMGAP
 40
0.1524
  9
$DIMJUST
 70
     0
  9
$DIMSD1
 70
     0
  9
$DIMSD2
 70
     0
  9
$DIMTOLJ
 70
     0
  9
$DIMTZIN
 70
     0
  9
$DIMALTZ
 70
     0
  9
$DIMALTTZ
 70
     0
  9
$DIMFIT
 70
     3
  9
$DIMUPT
 70
     0
  9
$DIMUNIT
 70
     2
  9
$DIMDEC
 70
     2
  9
$DIMTDEC
 70
     2
  9
$DIMALTU
 70
     2
  9
$DIMALTTD
 70
     3
  9
$DIMTXSTY
  7
STANDARD
  9
$DIMAUNIT
 70
     0
  9
$LUNITS
 70
     2
  9
$LUPREC
 70
     2
  9
$SKETCHINC
 40
1.0
  9
$FILLETRAD
 40
10.0
  9
$AUNITS
 70
     0
  9
$AUPREC
 70
     0
  9
$MENU
  1
.
  9
$ELEVATION
 40
0.0
  9
$PELEVATION
 40
0.0
  9
$THICKNESS
 40
0.0
  9
$LIMCHECK
 70
     0
  9
$BLIPMODE
 70
     0
  9
$CHAMFERA
 40
10.0
  9
$CHAMFERB
 40
10.0
  9
$CHAMFERC
 40
20.0
  9
$CHAMFERD
 40
0.0
  9
$SKPOLY
 70
     0
  9
$TDCREATE
 40
2453964.659911921
  9
$TDUPDATE
 40
2453966.372166157
  9
$TDINDWG
 40
0.0131320718
  9
$TDUSRTIMER
 40
0.0131320718
  9
$USRTIMER
 70
     1
  9
$ANGBASE
 50
0.0
  9
$ANGDIR
 70
     0
  9
$PDMODE
 70
     0
  9
$PDSIZE
 40
-1.0
  9
$PLINEWID
 40
0.0
  9
$COORDS
 70
     2
  9
$SPLFRAME
 70
     0
  9
$SPLINETYPE
 70
     6
  9
$SPLINESEGS
 70
     8
  9
$ATTDIA
 70
     0
  9
$ATTREQ
 70
     1
  9
$HANDLING
 70
 22529
  9
$HANDSEED
  5
1CC
  9
$SURFTAB1
 70
     6
  9
$SURFTAB2
 70
     6
  9
$SURFTYPE
 70
     6
  9
$SURFU
 70
     6
  9
$SURFV
 70
     6
  9
$UCSNAME
  2

  9
$UCSORG
 10
0.0
 20
0.0
 30
0.0
  9
$UCSXDIR
 10
1.0
 20
0.0
 30
0.0
  9
$UCSYDIR
 10
0.0
 20
1.0
 30
0.0
  9
$PUCSNAME
  2

  9
$PUCSORG
 10
0.0
 20
0.0
 30
0.0
  9
$PUCSXDIR
 10
1.0
 20
0.0
 30
0.0
  9
$PUCSYDIR
 10
0.0
 20
1.0
 30
0.0
  9
$USERI1
 70
     0
  9
$USERI2
 70
     0
  9
$USERI3
 70
     0
  9
$USERI4
 70
     0
  9
$USERI5
 70
     0
  9
$USERR1
 40
0.0
  9
$USERR2
 40
0.0
  9
$USERR3
 40
0.0
  9
$USERR4
 40
0.0
  9
$USERR5
 40
0.0
  9
$WORLDVIEW
 70
     1
  9
$SHADEDGE
 70
     3
  9
$SHADEDIF
 70
    70
  9
$TILEMODE
 70
     1
  9
$MAXACTVP
 70
    48
  9
$PINSBASE
 10
0.0
 20
0.0
 30
0.0
  9
$PLIMCHECK
 70
     0
  9
$PEXTMIN
 10
1.000000000000000E+20
 20
1.000000000000000E+20
 30
1.000000000000000E+20
  9
$PEXTMAX
 10
-1.000000000000000E+20
 20
-1.000000000000000E+20
 30
-1.000000000000000E+20
  9
$PLIMMIN
 10
0.0
 20
0.0
  9
$PLIMMAX
 10
420.0
 20
297.0
  9
$UNITMODE
 70
     0
  9
$VISRETAIN
 70
     1
  9
$PLINEGEN
 70
     0
  9
$PSLTSCALE
 70
     1
  9
$TREEDEPTH
 70
  3020
  9
$PICKSTYLE
 70
     1
  9
$CMLSTYLE
  2
STANDARD
  9
$CMLJUST
 70
     0
  9
$CMLSCALE
 40
20.0
  9
$PROXYGRAPHICS
 70
     1
  9
$MEASUREMENT
 70
     1
  0
ENDSEC
  0
SECTION
  2
CLASSES
  0
CLASS
  1
ACDBDICTIONARYWDFLT
  2
AcDbDictionaryWithDefault
  3
AutoCAD 2000
 90
        0
280
     0
281
     0
  0
CLASS
  1
ACDBPLACEHOLDER
  2
AcDbPlaceHolder
  3
AutoCAD 2000
 90
        0
280
     0
281
     0
  0
CLASS
  1
LAYOUT
  2
AcDbLayout
  3
AutoCAD 2000
 90
        0
280
     0
281
     0
  0
CLASS
  1
DICTIONARYVAR
  2
AcDbDictionaryVar
  3
AutoCAD 2000
 90
        0
280
     0
281
     0
  0
CLASS
  1
LONG_TRANSACTION
  2
AcDbLongTransaction
  3
AutoCAD 2000
 90
        0
280
     0
281
     0
  0
CLASS
  1
LWPOLYLINE
  2
AcDbPolyline
  3
AutoCAD 2000
 90
        0
280
     0
281
     1
  0
CLASS
  1
HATCH
  2
AcDbHatch
  3
AutoCAD 2000
 90
        0
280
     0
281
     1
  0
CLASS
  1
XRECORD
  2
AcDbXrecord
  3
AutoCAD 2000
 90
        0
280
     0
281
     0
  0
CLASS
  1
LONG_TRANSACTION
  2
AcDbLongTransaction
  3
AutoCAD 2000
 90
        0
280
     0
281
     0
  0
CLASS
  1
LWPOLYLINE
  2
AcDbPolyline
  3
AutoCAD 2000
 90
        0
280
     0
281
     1
  0
CLASS
  1
HATCH
  2
AcDbHatch
  3
AutoCAD 2000
 90
        0
280
     0
281
     1
  0
CLASS
  1
XRECORD
  2
AcDbXrecord
  3
AutoCAD 2000
 90
        0
280
     0
281
     0
  0
ENDSEC
  0
SECTION
  2
TABLES
  0
TABLE
  2
VPORT
  5
8
330
0
100
AcDbSymbolTable
 70
     2
  0
VPORT
  5
1A7
330
8
100
AcDbSymbolTableRecord
100
AcDbViewportTableRecord
  2
*ACTIVE
 70
     0
 10
0.0
 20
0.0
 11
1.0
 21
1.0
 12
11.98699728871812
 22
12.25918584195802
 13
0.0
 23
0.0
 14
10.0
 24
10.0
 15
10.0
 25
10.0
 16
0.0
 26
0.0
 36
1.0
 17
0.0
 27
0.0
 37
0.0
 40
12.38515259344989
 41
1.674961119751166
 42
50.0
 43
0.0
 44
0.0
 50
0.0
 51
0.0
 71
     0
 72
  2000
 73
     1
 74
     3
 75
     0
 76
     0
 77
     0
 78
     0
  0
ENDTAB
  0
TABLE
  2
LTYPE
  5
5
330
0
100
AcDbSymbolTable
 70
     1
  0
LTYPE
  5
14
330
5
100
AcDbSymbolTableRecord
100
AcDbLinetypeTableRecord
  2
BYBLOCK
 70
     0
  3

 72
    65
 73
     0
 40
0.0
  0
LTYPE
  5
15
330
5
100
AcDbSymbolTableRecord
100
AcDbLinetypeTableRecord
  2
BYLAYER
 70
     0
  3

 72
    65
 73
     0
 40
0.0
  0
LTYPE
  5
16
330
5
100
AcDbSymbolTableRecord
100
AcDbLinetypeTableRecord
  2
CONTINUOUS
 70
     0
  3
Solid line
 72
    65
 73
     0
 40
0.0
  0
ENDTAB
  0
TABLE
  2
LAYER
  5
2
330
0
100
AcDbSymbolTable
 70
     2
  0
LAYER
  5
10
330
2
100
AcDbSymbolTableRecord
100
AcDbLayerTableRecord
  2
0
 70
     0
 62
     7
  6
CONTINUOUS
  0
LAYER
  5
2F
330
2
100
AcDbSymbolTableRecord
100
AcDbLayerTableRecord
  2
DIMENSIONS
 70
     0
 62
     5
  6
CONTINUOUS
  0
ENDTAB
  0
TABLE
  2
STYLE
  5
3
330
0
100
AcDbSymbolTable
 70
     1
  0
STYLE
  5
11
330
3
100
AcDbSymbolTableRecord
100
AcDbTextStyleTableRecord
  2
STANDARD
 70
     0
 40
0.0
 41
1.0
 50
0.0
 71
     0
 42
2.5
  3
ARIAL.TTF
  4

1001
ACAD
1000
Arial
1071
       34
  0
ENDTAB
  0
TABLE
  2
VIEW
  5
6
330
0
100
AcDbSymbolTable
 70
     0
  0
ENDTAB
  0
TABLE
  2
UCS
  5
7
330
0
100
AcDbSymbolTable
 70
     0
  0
ENDTAB
  0
TABLE
  2
APPID
  5
9
330
0
100
AcDbSymbolTable
 70
     1
  0
APPID
  5
12
330
9
100
AcDbSymbolTableRecord
100
AcDbRegAppTableRecord
  2
ACAD
 70
     0
  0
ENDTAB
  0
TABLE
  2
DIMSTYLE
  5
A
330
0
100
AcDbSymbolTable
 70
     1
  0
DIMSTYLE
105
27
330
A
100
AcDbSymbolTableRecord
100
AcDbDimStyleTableRecord
  2
ISO-25
 70
     0
  3

  4

  5

  6

  7

 40
1.0
 41
2.5
 42
0.625
 43
3.75
 44
1.25
 45
0.0
 46
0.0
 47
0.0
 48
0.0
140
2.5
141
2.5
142
0.0
143
0.03937007874016
144
1.0
145
0.0
146
1.0
147
0.625
 71
     0
 72
     0
 73
     0
 74
     0
 75
     0
 76
     0
 77
     1
 78
     8
170
     0
171
     3
172
     1
173
     0
174
     0
175
     0
176
     0
177
     0
178
     0
270
     2
271
     2
272
     2
273
     2
274
     3
340
11
275
     0
280
     0
281
     0
282
     0
283
     0
284
     8
285
     0
286
     0
287
     3
288
     0
  0
ENDTAB
  0
TABLE
  2
BLOCK_RECORD
  5
1
330
0
100
AcDbSymbolTable
 70
     1
  0
BLOCK_RECORD
  5
1F
102
{ACAD_XDICTIONARY
360
168
102
}
330
1
100
AcDbSymbolTableRecord
100
AcDbBlockTableRecord
  2
*MODEL_SPACE
  0
BLOCK_RECORD
  5
1B
102
{ACAD_XDICTIONARY
360
16A
102
}
330
1
100
AcDbSymbolTableRecord
100
AcDbBlockTableRecord
  2
*PAPER_SPACE
  0
ENDTAB
  0
ENDSEC
  0
SECTION
  2
BLOCKS
  0
BLOCK
  5
20
330
1F
100
AcDbEntity
  8
0
100
AcDbBlockBegin
  2
*MODEL_SPACE
 70
     0
 10
0.0
 20
0.0
 30
0.0
  3
*MODEL_SPACE
  1

  0
ENDBLK
  5
21
330
1F
100
AcDbEntity
  8
0
100
AcDbBlockEnd
  0
BLOCK
  5
1C
330
1B
100
AcDbEntity
 67
     1
  8
0
100
AcDbBlockBegin
  2
*PAPER_SPACE
 70
     0
 10
0.0
 20
0.0
 30
0.0
  3
*PAPER_SPACE
  1

  0
ENDBLK
  5
1D
330
1B
100
AcDbEntity
 67
     1
  8
0
100
AcDbBlockEnd
  0
ENDSEC
  0
SECTION
  2
ENTITIES
  0
LINE
  5
A0
330
1F
100
AcDbEntity
  8
0
  6
CONTINUOUS
 62
     7
100
AcDbLine
 10
5.986607497837974
 20
18.39317192915368
 30
0.0
 11
5.986607497837974
 21
13.05983859582035
 31
0.0
  0
ARC
  5
A1
330
1F
100
AcDbEntity
  8
0
  6
CONTINUOUS
 62
     7
100
AcDbCircle
 10
8.502965561183993
 20
15.859842747506
 30
0.0
 40
2.11237156324397
100
AcDbArc
 50
156.6050143475343
 51
208.805199468967
  0
LINE
  5
A2
330
1F
100
AcDbEntity
  8
0
  6
CONTINUOUS
 62
     7
100
AcDbLine
 10
17.98660749783797
 20
13.05983859582035
 30
0.0
 11
17.98660749783797
 21
18.39317192915368
 31
0.0
  0
ARC
  5
A3
330
1F
100
AcDbEntity
  8
0
  6
CONTINUOUS
 62
     7
100
AcDbCircle
 10
15.4706277065545
 20
15.85983171165287
 30
0.0
 40
2.112028558933809
100
AcDbArc
 50
331.1904240336391
 51
23.39933274030602
  0
LINE
  5
A4
330
1F
100
AcDbEntity
  8
0
  6
CONTINUOUS
 62
     7
100
AcDbLine
 10
5.986607497837974
 20
13.05983859582035
 30
0.0
 11
17.98660749783797
 21
13.05983859582035
 31
0.0
  0
LWPOLYLINE
  5
A5
330
1F
100
AcDbEntity
  8
0
  6
CONTINUOUS
 62
     7
100
AcDbPolyline
 90
       15
 70
   128
 43
0.0
 10
7.874603137177005
 20
13.83090517471398
 10
7.942244737852021
 20
13.81036083070788
 10
8.010554094400985
 20
13.79208169967167
 10
8.079416058259777
 20
13.77609485782148
 10
8.149483420165855
 20
13.76228713229918
 10
8.219996136695687
 20
13.75084293209024
 10
8.290834209069823
 20
13.74178186891809
 10
8.347944045998282
 20
13.73639761907486
 10
8.405207604603486
 20
13.7326944678744
 10
8.462568950710581
 20
13.73039402884234
 10
8.519972150144722
 20
13.72921791550431
 10
8.577361268731054
 20
13.72888774138594
 10
8.721339492674452
 20
13.72888774138594
 10
8.863565272827825
 20
13.72888774138594
 10
9.15327416450464
 20
13.72888774138594
  0
LINE
  5
A9
330
1F
100
AcDbEntity
  8
0
  6
CONTINUOUS
 62
     7
100
AcDbLine
 10
9.15327416450464
 20
13.72888774138594
 30
0.0
 11
14.81994083117131
 21
13.72888774138594
 31
0.0
  0
LWPOLYLINE
  5
AD
330
1F
100
AcDbEntity
  8
0
  6
CONTINUOUS
 62
     7
100
AcDbPolyline
 90
       14
 70
   128
 43
0.0
 10
14.81994083117131
 20
13.72888774138594
 10
15.33983683978612
 20
13.72888774138594
 10
15.40310000498775
 20
13.72884643514367
 10
15.46637254847123
 20
13.72918467726462
 10
15.52960863866194
 20
13.73059570902039
 10
15.59276244398525
 20
13.73377277168263
 10
15.65608693938848
 20
13.73903424190321
 10
15.71922524608481
 20
13.74619097700274
 10
15.78179913799173
 20
13.75518611021429
 10
15.84407696150622
 20
13.76604249119652
 10
15.90841953599168
 20
13.77928752350835
 10
15.97235146129193
 20
13.79452689456287
 10
16.03578030941865
 20
13.81173928634245
 10
16.09861365238351
 20
13.83090338082947
  0
LWPOLYLINE
  5
AE
330
1F
100
AcDbEntity
  8
0
  6
CONTINUOUS
 62
     7
100
AcDbPolyline
 90
      239
 70
   128
 43
0.0
 10
14.44171802449609
 20
17.43844764923499
 10
14.48549080426385
 20
17.43794770077824
 10
14.52924165699856
 20
17.43624097764126
 10
14.57292073728059
 20
17.43332996143811
 10
14.62610781390011
 20
17.42814239708341
 10
14.67913537279275
 20
17.4211620187301
 10
14.73191415127869
 20
17.41240409387698
 10
14.78435488667809
 20
17.40188389002283
 10
14.83636831631112
 20
17.38961667466646
 10
14.88017476236692
 20
17.37783359087569
 10
14.92363586991283
 20
17.36480170500447
 10
14.96669751980691
 20
17.35053427270931
 10
15.00784907271852
 20
17.33559890417214
 10
15.04857892237583
 20
17.31952585514592
 10
15.08883962554702
 20
17.30233249342896
 10
15.13732564335
 20
17.27982695097313
 10
15.18506030403141
 20
17.25566642429406
 10
15.23196465878662
 20
17.22989804267371
 10
15.27795975881101
 20
17.202568935394
 10
15.32296665529993
 20
17.17372623173687
 10
15.36039549216313
 20
17.1480580704977
 10
15.39708469401162
 20
17.12132750458692
 10
15.43298895744787
 20
17.09356649859767
 10
15.46677844235734
 20
17.06589103558737
 10
15.49979702781479
 20
17.03728744411745
 10
15.53200279076937
 20
17.00778408885476
 10
15.5701871303594
 20
16.9705500202285
 10
15.60710750934553
 20
16.93199855240967
 10
15.64270982837396
 20
16.89220466844583
 10
15.67693998809091
 20
16.85124335138457
 10
15.70974388914258
 20
16.80918958427345
 10
15.73647146709059
 20
16.77263885066234
 10
15.76215291436741
 20
16.73533445817065
 10
15.78675499759395
 20
16.69732053139122
 10
15.80938985688486
 20
16.66009276117944
 10
15.83099048138687
 20
16.62224592217074
 10
15.8515279647217
 20
16.58382135148853
 10
15.87513908818212
 20
16.53614087667851
 10
15.89712868973528
 20
16.48764015946281
 10
15.91746120015927
 20
16.43840492212621
 10
15.93610105023219
 20
16.38852088695349
 10
15.95301267073212
 20
16.33807377622942
 10
15.96601453792239
 20
16.29479957133043
 10
15.97776710215391
 20
16.25115975207395
 10
15.98826069886058
 20
16.20720976297427
 10
16.00111737448687
 20
16.14364459817739
 10
16.01136505555529
 20
16.07960705611361
 10
16.01776243212828
 20
16.02722738683992
 10
16.02240971702436
 20
15.9746183272798
 10
16.02529194599346
 20
15.92186899417125
 10
16.02639415478549
 20
15.86906850425224
 10
16.0257013791504
 20
15.81630597426076
 10
16.02370405498599
 20
15.7715560473525
 10
16.02042890374697
 20
15.72687230189316
 10
16.01588704110147
 20
15.68230860617753
 10
16.01028178308752
 20
15.63924453684754
 10
16.00349917961858
 20
15.59634198251858
 10
15.99554766993784
 20
15.55364897447947
 10
15.98425736087904
 20
15.50185503688458
 10
15.97122352962855
 20
15.4504255081378
 10
15.95646537895229
 20
15.39944896279415
 10
15.94000211161618
 20
15.34901397540866
 10
15.92185293038614
 20
15.29920912053635
 10
15.90512109089913
 20
15.25743164545072
 10
15.88718943047354
 20
15.21614488087178
 10
15.8680808960126
 20
15.17539990797381
 10
15.8485277188678
 20
15.13660175430084
 10
15.82790344004928
 20
15.0983528510941
 10
15.80623464404702
 20
15.0606955558621
 10
15.77839241832204
 20
15.0155609108649
 10
15.74903343911365
 20
14.97134503212729
 10
15.71821060770557
 20
14.92811872312306
 10
15.68597682538149
 20
14.88595278732601
 10
15.65238499342512
 20
14.8449180282099
 10
15.62281409266541
 20
14.81099052623178
 10
15.59228257006307
 20
14.77791271931239
 10
15.5608222267399
 20
14.7457303214221
 10
15.52941744874437
 20
14.71537829645513
 10
15.49717387257746
 20
14.68590647202831
 10
15.4641334097882
 20
14.65734383829914
 10
15.42275138132576
 20
14.62372670502467
 10
15.38023137475838
 20
14.59148715010864
 10
15.33664642539053
 20
14.56067698097645
 10
15.29206956852671
 20
14.53134800505351
 10
15.2465738394714
 20
14.50355202976525
 10
15.20724228225164
 20
14.481171196861
 10
15.1672793032732
 20
14.45991906146367
 10
15.12673315037659
 20
14.43982314526648
 10
15.08697371102654
 20
14.42149460683149
 10
15.04671475876344
 20
14.40427001415296
 10
15.00600289119933
 20
14.38816824605627
 10
14.95572159703464
 20
14.37004926529499
 10
14.90481559541975
 20
14.35362075434076
 10
14.85337258546522
 20
14.33890486063631
 10
14.80148026628157
 20
14.32592373162434
 10
14.74922633697936
 20
14.31469951474755
 10
14.70459860890045
 20
14.30655345670676
 10
14.65974840363522
 20
14.29967806198082
 10
14.61473006899119
 20
14.29408203816948
 10
14.57102264763468
 20
14.28988883960868
 10
14.52720808754163
 20
14.28690092854671
 10
14.48333627066116
 20
14.28512249194383
 10
14.40391499777984
 20
14.28378437839033
 10
14.3244779153748
 20
14.28367723632801
 10
14.24503182496397
 20
14.28429774585107
 10
14.16558352806525
 20
14.28514258705371
 10
14.08613982619657
 20
14.28570844003015
 10
13.55643976351221
 20
14.2874091375712
 10
13.02675287039515
 20
14.28902408990232
 10
12.76190052210905
 20
14.28976252861565
 10
12.49703902602445
 20
14.2903989553976
 10
12.27515475640972
 20
14.29079776198643
 10
12.05326174778097
 20
14.29099935696846
 10
11.83133448784517
 20
14.290945082223
 10
11.60941295596966
 20
14.29065828014056
 10
11.38744949859996
 20
14.29020139811563
 10
11.16549437909568
 20
14.28963883079664
 10
10.72159220283256
 20
14.28835459590265
 10
10.12998024754502
 20
14.2864948640548
 10
9.784879520651823
 20
14.2853751324126
 10
9.727347532729753
 20
14.28491880503901
 10
9.669799789192401
 20
14.28420716103984
 10
9.612252247837826
 20
14.28366237612733
 10
9.554720866464084
 20
14.28370662601373
 10
9.497221602869228
 20
14.28476208641129
 10
9.439770414851317
 20
14.28725093303226
 10
9.390092831442837
 20
14.29092792129326
 10
9.340530112258917
 20
14.29615882315939
 10
9.291154630714428
 20
14.30293427096462
 10
9.24203876022425
 20
14.31124489704291
 10
9.181735032357822
 20
14.32363594310517
 10
9.121887409917624
 20
14.3383638189233
 10
9.062629928059857
 20
14.35539447296159
 10
9.00409662194073
 20
14.37469385368435
 10
8.946421526716445
 20
14.39622790955589
 10
8.905985606815342
 20
14.41288247540104
 10
8.866017461774454
 20
14.43065126324897
 10
8.826563151813163
 20
14.4495145037201
 10
8.779129622836853
 20
14.47401615662058
 10
8.732510925744145
 20
14.50012788179428
 10
8.686781902702175
 20
14.52779868431617
 10
8.642017395878085
 20
14.55697756926124
 10
8.598292247439015
 20
14.58761354170446
 10
8.562001156090063
 20
14.61475476234535
 10
8.52648883337183
 20
14.64292225207427
 10
8.491800868736396
 20
14.67208480523048
 10
8.459130936876899
 20
14.70115970130121
 10
8.427275489227742
 20
14.73113725043965
 10
8.396276169428215
 20
14.76198731250662
 10
8.359614335407561
 20
14.80081345804849
 10
8.324258269945461
 20
14.8408930701414
 10
8.2902605102002
 20
14.88215190789278
 10
8.257673593330064
 20
14.92451573041007
 10
8.226550056493332
 20
14.96791029680068
 10
8.201284181934481
 20
15.00554870537455
 10
8.177097203484585
 20
15.04390037894357
 10
8.154023770682913
 20
15.08292141718975
 10
8.132862580345515
 20
15.12113645256414
 10
8.112768721057349
 20
15.15993298975467
 10
8.093767997591173
 20
15.19926712147707
 10
8.07207002231564
 20
15.24800497724653
 10
8.052033460865258
 20
15.29749950204161
 10
8.033688303908519
 20
15.34766257018053
 10
8.017064542113921
 20
15.39840605598153
 10
8.002192166149958
 20
15.44964183376283
 10
7.9909374638541
 20
15.49352850644045
 10
7.980943422881922
 20
15.53772903245451
 10
7.972218134217165
 20
15.582188123807
 10
7.964222648002429
 20
15.63047264044762
 10
7.957716483653219
 20
15.67900401671893
 10
7.952712911759237
 20
15.7277130662988
 10
7.949225202910177
 20
15.77653060286507
 10
7.947251830391076
 20
15.82621468538325
 10
7.946866973838634
 20
15.87596191737749
 10
7.948067162771291
 20
15.92569641226676
 10
7.950848926707491
 20
15.97534228347001
 10
7.954715007079022
 20
16.02009749425433
 10
7.95985252387833
 20
16.0647338647796
 10
7.966251656118954
 20
16.10919785237831
 10
7.973633887188921
 20
16.15200225798147
 10
7.982187159093326
 20
16.19459645321296
 10
7.991904393174412
 20
16.23693187395992
 10
8.00534967631628
 20
16.28822932449169
 10
8.020536062358802
 20
16.33908645540571
 10
8.037438055367649
 20
16.38941528885704
 10
8.056030159408503
 20
16.43912784700076
 10
8.076286878547042
 20
16.48813615199192
 10
8.094792124424571
 20
16.52918619573207
 10
8.114477744633145
 20
16.56969387266214
 10
8.135317329514107
 20
16.6096095952868
 10
8.159233811867052
 20
16.6522486180081
 10
8.184475470623178
 20
16.69414416295769
 10
8.210999537253931
 20
16.73524020033906
 10
8.238763243230742
 20
16.77548070035574
 10
8.26821525643359
 20
16.8154577985286
 10
8.298916467881396
 20
16.85451466860232
 10
8.330825002069945
 20
16.89259104023315
 10
8.363898983495014
 20
16.92962664307737
 10
8.394768454270618
 20
16.96216215532498
 10
8.426565861670043
 20
16.99380440914914
 10
8.459251726507705
 20
17.02451440265416
 10
8.491814762893511
 20
17.05342295384139
 10
8.525169425526835
 20
17.081427267676
 10
8.559274451978335
 20
17.10849942034775
 10
8.60189166794974
 20
17.14026127286676
 10
8.645583641846824
 20
17.17060617119309
 10
8.690277315680182
 20
17.19948212297995
 10
8.735899631460421
 20
17.22683713588054
 10
8.78237753119814
 20
17.25261921754804
 10
8.822494170126459
 20
17.27326048295577
 10
8.863193527261275
 20
17.29274875276669
 10
8.904425365611389
 20
17.31106046354913
 10
8.94483030154306
 20
17.32765806052357
 10
8.985686613292472
 20
17.34313454085512
 10
9.026946876528892
 20
17.3574736571457
 10
9.077829179069732
 20
17.37342364600213
 10
9.12926235570363
 20
17.38766533605576
 10
9.1811584575701
 20
17.40017913655454
 10
9.233429535808664
 20
17.41094545674644
 10
9.285987641558838
 20
17.41994470587943
 10
9.330814974064116
 20
17.42619395571144
 10
9.375810926697845
 20
17.43116609237762
 10
9.420920857721995
 20
17.4348545684963
 10
9.464624478850884
 20
17.43706769830695
 10
9.508383593196366
 20
17.43809850838126
 10
9.552167394522987
 20
17.43836749494269
 10
9.595945076595295
 20
17.43829515421469
 10
9.771228994014267
 20
17.43789143680991
 10
10.1217974364207
 20
17.43713851224294
 10
10.59006162325192
 20
17.43627090965945
 10
11.05833793962759
 20
17.43560201186089
 10
11.52662298690891
 20
17.43517694188791
 10
11.89099948546136
 20
17.43504093949766
 10
12.25537678328078
 20
17.43508324107546
 10
12.61976366886963
 20
17.43530291264331
 10
12.98414583367344
 20
17.43568593640891
 10
13.34854690999915
 20
17.43621371368904
 10
13.7129410308637
 20
17.43686390135766
 10
14.44171802449609
 20
17.43844764923499
  0
ARC
  5
B3
330
1F
100
AcDbEntity
  8
0
  6
CONTINUOUS
 62
     7
100
AcDbCircle
 10
8.537801313404068
 20
15.87673450504526
 30
0.0
 40
2.150988301873647
100
AcDbArc
 50
208.7500159580887
 51
252.0418320072491
  0
ARC
  5
B4
330
1F
100
AcDbEntity
  8
0
  6
CONTINUOUS
 62
     7
100
AcDbCircle
 10
8.538327773252493
 20
15.84559564583592
 30
0.0
 40
2.150483904622354
100
AcDbArc
 50
113.5317316720476
 51
156.6307343384504
  0
LWPOLYLINE
  5
B5
330
1F
100
AcDbEntity
  8
0
  6
CONTINUOUS
 62
     7
100
AcDbPolyline
 90
       47
 70
   128
 43
0.0
 10
16.29348070738718
 20
17.81697419914829
 10
16.22588244958864
 20
17.84492361827226
 10
16.1572900944288
 20
17.87052619109276
 10
16.08783051680946
 20
17.89374546384189
 10
16.01763059163241
 20
17.91454498275178
 10
15.94681719379942
 20
17.93288829405451
 10
15.89000278199371
 20
17.9457351190032
 10
15.83283528244403
 20
17.9570211739656
 10
15.77537953914516
 20
17.96673456838425
 10
15.71770039609187
 20
17.97486341170163
 10
15.65936563966566
 20
17.98144858128619
 10
15.60087091294465
 20
17.98641681025331
 10
15.54315020102759
 20
17.98972497590524
 10
15.48536073490192
 20
17.99145869052946
 10
15.40468552932662
 20
17.99211877823506
 10
15.32400316182021
 20
17.99196213794523
 10
15.2433207573364
 20
17.99174244181432
 10
14.5256563688004
 20
17.99174244181432
 10
14.52477971274976
 20
17.99174244181432
 10
14.52581576080961
 20
17.99174244181432
 10
14.52828633695235
 20
17.99174244181432
 10
14.53171326515035
 20
17.99174244181432
 10
14.53561836937597
 20
17.99174244181432
 10
14.5395234736016
 20
17.99174244181432
 10
14.54295040179959
 20
17.99174244181432
 10
14.54542097794234
 20
17.99174244181432
 10
14.5464570260022
 20
17.99174244181432
 10
14.54558036995154
 20
17.99174244181432
 10
13.84783998256669
 20
17.99174244181433
 10
13.0903275917284
 20
17.99174244181432
 10
11.16540401281538
 20
17.9917424418143
 10
8.935079735451436
 20
17.99174244181431
 10
8.649264216295497
 20
17.99174244181432
 10
8.577809815872553
 20
17.99184789872341
 10
8.506356456717528
 20
17.99168064896977
 10
8.434852693573171
 20
17.98992837146655
 10
8.363448697139558
 20
17.98576649178852
 10
8.291530642034148
 20
17.97911931209299
 10
8.219839131273742
 20
17.97002179692083
 10
8.148498523657258
 20
17.95849206120503
 10
8.077633177983614
 20
17.94454821987857
 10
8.009744664993013
 20
17.92880428828794
 10
7.942338286016605
 20
17.91081256507089
 10
7.875523947778651
 20
17.89060347456543
 10
7.809411557003407
 20
17.8682074411096
 10
7.74411102041513
 20
17.8436548890414
 10
7.679732244738075
 20
17.81697624269886
  0
ARC
  5
B6
330
1F
100
AcDbEntity
  8
0
  6
CONTINUOUS
 62
     7
100
AcDbCircle
 10
15.43474043652757
 20
15.84541244003857
 30
0.0
 40
2.150691103460499
100
AcDbArc
 50
23.37219258805024
 51
66.46646629114058
  0
ARC
  5
B7
330
1F
100
AcDbEntity
  8
0
  6
CONTINUOUS
 62
     7
100
AcDbCircle
 10
15.4353775706654
 20
15.87676986399153
 30
0.0
 40
2.151036931940982
100
AcDbArc
 50
287.9588095338746
 51
331.2496212551285
  0
LWPOLYLINE
  5
BA
330
1F
100
AcDbEntity
  8
0
  6
CONTINUOUS
 62
     7
100
AcDbPolyline
 90
      102
 70
   128
 43
0.0
 10
11.98660749783797
 20
13.75978871020516
 10
11.99738356832609
 20
13.75984490438716
 10
12.00811794829093
 20
13.76001326952879
 10
12.01876910850175
 20
13.76029315425803
 10
12.02929584168885
 20
13.76068347575524
 10
12.03965742196654
 20
13.76118272394236
 10
12.04981376239363
 20
13.76178896732514
 10
12.05972557006206
 20
13.76249986046572
 10
12.0693544981135
 20
13.76331265305664
 10
12.0786632940959
 20
13.76422420056125
 10
12.087615944086
 20
13.76523097637936
 10
12.09617781202019
 20
13.76632908549089
 10
12.10431577369472
 20
13.76751427952503
 10
12.11199834491683
 20
13.7687819731963
 10
12.11919580331091
 20
13.77012726204416
 10
12.12588030330867
 20
13.7715449414074
 10
12.13202598387821
 20
13.77302952655998
 10
12.1376090685753
 20
13.77457527393034
 10
12.14260795752985
 20
13.7761762033222
 10
12.14700331101163
 20
13.77782612105074
 10
12.15077812425188
 20
13.77951864390481
 10
12.1539177932315
 20
13.78124722384228
 10
12.15641017118114
 20
13.78300517332317
 10
12.15824561557471
 20
13.78478569118247
 10
12.15941702543441
 20
13.78658188894246
 10
12.15991986880306
 20
13.78838681746296
 10
12.15975220027736
 20
13.79019349382616
 10
12.15891466853425
 20
13.79199492835219
 10
12.15741051382134
 20
13.79378415164082
 10
12.15524555542102
 20
13.79555424153474
 10
12.15242816913675
 20
13.79729834990002
 10
12.14896925488874
 20
13.79900972912023
 10
12.14488219454426
 20
13.80068175820161
 10
12.14018280014581
 20
13.80230796838847
 10
12.13488925273737
 20
13.80388206818953
 10
12.1290220320255
 20
13.80539796771845
 10
12.12260383714734
 20
13.80684980225443
 10
12.11565949885201
 20
13.8082319549317
 10
12.10821588343533
 20
13.80953907847007
 10
12.10030178879929
 20
13.81076611586249
 10
12.09194783303859
 20
13.81190831993967
 10
12.08318633598518
 20
13.81296127173591
 10
12.07405119416907
 20
13.81392089758529
 10
12.06457774967929
 20
13.8147834848818
 10
12.05480265343221
 20
13.81554569644278
 10
12.04476372337621
 20
13.81620458341977
 10
12.03449979818145
 20
13.81675759670704
 10
12.02405058698056
 20
13.81720259680363
 10
12.01345651574174
 20
13.8175378620906
 10
12.00275857086854
 20
13.81776209549171
 10
11.99199814063141
 20
13.81787442949147
 10
11.98121685504453
 20
13.81787442949147
 10
11.9704564248074
 20
13.81776209549171
 10
11.95975847993419
 20
13.8175378620906
 10
11.94916440869538
 20
13.81720259680363
 10
11.93871519749449
 20
13.81675759670704
 10
11.92845127229973
 20
13.81620458341976
 10
11.91841234224373
 20
13.81554569644278
 10
11.90863724599664
 20
13.8147834848818
 10
11.89916380150687
 20
13.81392089758529
 10
11.89002865969076
 20
13.81296127173591
 10
11.88126716263734
 20
13.81190831993967
 10
11.87291320687664
 20
13.81076611586249
 10
11.86499911224061
 20
13.80953907847007
 10
11.85755549682393
 20
13.8082319549317
 10
11.8506111585286
 20
13.80684980225443
 10
11.84419296365043
 20
13.80539796771844
 10
11.83832574293857
 20
13.80388206818953
 10
11.83303219553013
 20
13.80230796838847
 10
11.82833280113167
 20
13.80068175820161
 10
11.8242457407872
 20
13.79900972912023
 10
11.82078682653919
 20
13.79729834990002
 10
11.81796944025492
 20
13.79555424153474
 10
11.8158044818546
 20
13.79378415164082
 10
11.81430032714169
 20
13.79199492835219
 10
11.81346279539859
 20
13.79019349382616
 10
11.81329512687288
 20
13.78838681746296
 10
11.81379797024153
 20
13.78658188894246
 10
11.81496938010123
 20
13.78478569118247
 10
11.8168048244948
 20
13.78300517332317
 10
11.81929720244444
 20
13.78124722384228
 10
11.82243687142406
 20
13.77951864390481
 10
11.82621168466432
 20
13.77782612105074
 10
11.83060703814609
 20
13.7761762033222
 10
11.83560592710065
 20
13.77457527393034
 10
11.84118901179773
 20
13.77302952655998
 10
11.84733469236727
 20
13.7715449414074
 10
11.85401919236503
 20
13.77012726204416
 10
11.86121665075911
 20
13.7687819731963
 10
11.86889922198122
 20
13.76751427952503
 10
11.87703718365575
 20
13.76632908549089
 10
11.88559905158995
 20
13.76523097637936
 10
11.89455170158004
 20
13.76422420056125
 10
11.90386049756244
 20
13.76331265305664
 10
11.91348942561388
 20
13.76249986046572
 10
11.92340123328231
 20
13.76178896732514
 10
11.93355757370941
 20
13.76118272394236
 10
11.94391915398709
 20
13.76068347575524
 10
11.95444588717419
 20
13.76029315425803
 10
11.96509704738501
 20
13.76001326952879
 10
11.97583142734985
 20
13.75984490438716
 10
11.98660749783797
 20
13.75978871020516
  0
LINE
  5
BB
330
1F
100
AcDbEntity
  8
0
  6
CONTINUOUS
 62
     7
100
AcDbLine
 10
17.98660749783797
 20
18.39317192915368
 30
0.0
 11
5.986607497837974
 21
18.39317192915368
 31
0.0
  0
LWPOLYLINE
  5
BE
330
1F
100
AcDbEntity
  8
0
  6
CONTINUOUS
 62
     7
100
AcDbPolyline
 90
       24
 70
   128
 43
0.0
 10
11.82517379053819
 20
13.77827678715897
 10
11.83078860147284
 20
13.78053203483311
 10
11.84011738949065
 20
13.78333569476549
 10
11.85123498779849
 20
13.78594973178488
 10
11.86470457675568
 20
13.78845876987586
 10
11.87904479321784
 20
13.79058686917364
 10
11.89469847224084
 20
13.79243680049867
 10
11.91236418166431
 20
13.79405717502333
 10
11.93009907594614
 20
13.79526978663393
 10
11.94852400211951
 20
13.79614704654084
 10
11.96839415727957
 20
13.79669607256328
 10
11.98752425458345
 20
13.79685648372619
 10
12.0066431572482
 20
13.79666216781516
 10
12.02647754888078
 20
13.79607794681614
 10
12.04484607585201
 20
13.79516807238957
 10
12.06250344376407
 20
13.79392408830554
 10
12.08006589467153
 20
13.79227248677093
 10
12.09560193923332
 20
13.7903949081944
 10
12.10980703810517
 20
13.78824150570628
 10
12.12311751517221
 20
13.78570872918046
 10
12.13406950615293
 20
13.7830751291956
 10
12.138913142353
 20
13.7816754025273
 10
12.14322081884322
 20
13.78025508809873
 10
12.14788220517607
 20
13.77832561267049
  0
CIRCLE
  5
BF
330
1F
100
AcDbEntity
  8
0
  6
CONTINUOUS
 62
     7
100
AcDbCircle
 10
11.98660749783797
 20
14.92650526248701
 30
0.0
 40
0.3665179007108037
  0
CIRCLE
  5
C0
330
1F
100
AcDbEntity
  8
0
  6
CONTINUOUS
 62
     7
100
AcDbCircle
 10
11.98660749783797
 20
14.92650526248701
 30
0.0
 40
0.1733333333333338
  0
LINE
  5
C1
330
1F
100
AcDbEntity
  8
DIMENSIONS
100
AcDbLine
 10
8.238500635917867
 20
6.363212584593222
 30
0.0
 11
8.238500635917867
 21
6.189879251259889
 31
0.0
  0
LINE
  5
C2
330
1F
100
AcDbEntity
  8
DIMENSIONS
100
AcDbLine
 10
11.50237019584638
 20
6.297935193392283
 30
0.0
 11
11.50237019584638
 21
6.124601860058949
 31
0.0
  0
LINE
  5
C3
330
1F
100
AcDbEntity
  8
DIMENSIONS
100
AcDbLine
 10
8.238500635917867
 20
6.189879251259889
 30
0.0
 11
11.50237019584638
 21
6.124601860058949
 31
0.0
  0
LINE
  5
C5
330
1F
100
AcDbEntity
  8
DIMENSIONS
  6
CONTINUOUS
 62
     5
100
AcDbLine
 10
15.73471435975808
 20
6.189879251259889
 30
0.0
 11
12.47084479982961
 21
6.124601860058958
 31
0.0
  0
LINE
  5
C6
330
1F
100
AcDbEntity
  8
DIMENSIONS
  6
CONTINUOUS
 62
     5
100
AcDbLine
 10
12.47084479982961
 20
6.297935193392291
 30
0.0
 11
12.47084479982961
 21
6.124601860058958
 31
0.0
  0
LINE
  5
C7
330
1F
100
AcDbEntity
  8
DIMENSIONS
  6
CONTINUOUS
 62
     5
100
AcDbLine
 10
15.73471435975808
 20
6.363212584593222
 30
0.0
 11
15.73471435975808
 21
6.189879251259889
 31
0.0
  0
LINE
  5
C8
330
1F
100
AcDbEntity
  8
DIMENSIONS
100
AcDbLine
 10
11.50237019584638
 20
6.124601860058949
 30
0.0
 11
12.47084479982961
 21
6.124601860058958
 31
0.0
  0
LINE
  5
C9
330
1F
100
AcDbEntity
  8
0
  6
CONTINUOUS
 62
     7
100
AcDbLine
 10
6.522946145044598
 20
9.309588041958464
 30
0.0
 11
7.933287407861981
 21
6.371377797978375
 31
0.0
  0
LWPOLYLINE
  5
CA
330
1F
100
AcDbEntity
  8
0
  6
CONTINUOUS
 62
     7
100
AcDbPolyline
 90
        3
 70
   128
 43
0.0
 10
16.03994825075748
 20
6.371421706733359
 10
16.79897088399214
 20
7.952717634098981
 10
17.45026885063134
 20
9.309588041958464
  0
LINE
  5
CB
330
1F
100
AcDbEntity
  8
0
  6
CONTINUOUS
 62
     7
100
AcDbLine
 10
8.238640810953413
 20
6.363209776140505
 30
0.0
 11
11.61215634237412
 21
6.295739503758404
 31
0.0
  0
LINE
  5
CC
330
1F
100
AcDbEntity
  8
0
  6
CONTINUOUS
 62
     7
100
AcDbLine
 10
12.36105865330182
 20
6.295739503758404
 30
0.0
 11
15.73452292472802
 21
6.363208782729758
 31
0.0
  0
ARC
  5
CD
330
1F
100
AcDbEntity
  8
0
  6
CONTINUOUS
 62
     7
100
AcDbCircle
 10
11.98660749783797
 20
6.749093993757123
 30
0.0
 40
0.5880000000000003
100
AcDbArc
 50
287.1446203290002
 51
309.5552288032996
  0
ARC
  5
CE
330
1F
100
AcDbEntity
  8
0
  6
CONTINUOUS
 62
     7
100
AcDbCircle
 10
11.98660749783797
 20
6.749093993757123
 30
0.0
 40
0.588000000000001
100
AcDbArc
 50
230.4447711967017
 51
252.8553796710016
  0
LINE
  5
CF
330
1F
100
AcDbEntity
  8
0
  6
CONTINUOUS
 62
     7
100
AcDbLine
 10
5.986607656783693
 20
9.309588041958464
 30
0.0
 11
5.986607656783693
 21
9.642921380258853
 31
0.0
  0
LINE
  5
D0
330
1F
100
AcDbEntity
  8
0
  6
CONTINUOUS
 62
     7
100
AcDbLine
 10
5.986607656783693
 20
9.642921380258853
 30
0.0
 11
17.98660733889225
 21
9.642921380258853
 31
0.0
  0
LINE
  5
D1
330
1F
100
AcDbEntity
  8
0
  6
CONTINUOUS
 62
     7
100
AcDbLine
 10
17.98660733889225
 20
9.309588041958464
 30
0.0
 11
17.98660733889225
 21
9.642921380258853
 31
0.0
  0
LINE
  5
D2
330
1F
100
AcDbEntity
  8
0
  6
CONTINUOUS
 62
     7
100
AcDbLine
 10
17.98660733889225
 20
9.309588041958464
 30
0.0
 11
5.986607656783693
 21
9.309588041958464
 31
0.0
  0
LWPOLYLINE
  5
DF
330
1F
100
AcDbEntity
  8
0
  6
CONTINUOUS
 62
     7
100
AcDbPolyline
 90
       63
 70
   128
 43
0.0
 10
10.72127032866759
 20
6.316757690963401
 10
10.3649541595646
 20
6.323246451275799
 10
10.00864206344568
 20
6.32994402652706
 10
10.00864186476353
 20
6.32994402652706
 10
9.65233225217147
 20
6.33676398998226
 10
9.563256090786888
 20
6.338482193208985
 10
9.518706983235313
 20
6.339341890868796
 10
9.474174962348573
 20
6.340197416203473
 10
9.429531679458253
 20
6.341049563941611
 10
9.38497144570632
 20
6.341895751215273
 10
9.340391542421611
 20
6.34273756748165
 10
9.295964028345379
 20
6.343572628554953
 10
9.252294287986391
 20
6.344389609552675
 10
9.208830978380474
 20
6.345199437993024
 10
9.165622975336345
 20
6.346001319147401
 10
9.122402057952516
 20
6.346800816115989
 10
9.079489296582176
 20
6.347591968434307
 10
9.036934957809084
 20
6.34837437873806
 10
8.993859277076357
 20
6.349164537645632
 10
8.951210365600221
 20
6.349945159810039
 10
8.90904027810378
 20
6.350715847866986
 10
8.867070660895937
 20
6.351481966234498
 10
8.825639670994712
 20
6.352237554448102
 10
8.784797972348167
 20
6.352982413825644
 10
8.745962566044761
 20
6.353690914369875
 10
8.707721418049766
 20
6.354388884760195
 10
8.670115854250227
 20
6.355076324996604
 10
8.632913615213666
 20
6.355757606086386
 10
8.596395836181276
 20
6.35642795965796
 10
8.560604041722251
 20
6.357086988347027
 10
8.524810260441734
 20
6.357748599904033
 10
8.489819949772789
 20
6.358398091849936
 10
8.45567960133834
 20
6.359035066820436
 10
8.422173048960003
 20
6.359663895822817
 10
8.389580434468223
 20
6.360279611803346
 10
8.357941891657146
 20
6.360882016079877
 10
8.328343019790285
 20
6.361450247026735
 10
8.29965808580998
 20
6.36200615968034
 10
8.271916494674318
 20
6.362549555358542
 10
8.244950558649334
 20
6.36308381165788
 10
8.218969688720338
 20
6.363605153617514
 10
8.194004481938316
 20
6.3641133825553
 10
8.169563796030315
 20
6.364619028625144
 10
8.146220232950481
 20
6.365110568262391
 10
8.124007568664186
 20
6.365587802784894
 10
8.102791891402834
 20
6.366053911107037
 10
8.082757975565229
 20
6.366505118267987
 10
8.063933239287965
 20
6.366941225585594
 10
8.046964989013307
 20
6.367346735852215
 10
8.031139955825441
 20
6.367738338368389
 10
8.016475623753501
 20
6.368115437087669
 10
8.002889341023399
 20
6.368480614877992
 10
7.990493164367311
 20
6.36883148755357
 10
7.979298617349896
 20
6.369167459067955
 10
7.969101852086021
 20
6.369495880660666
 10
7.9601643342841
 20
6.369809202410035
 10
7.952493613865805
 20
6.370107225633912
 10
7.946052735951377
 20
6.37039173847164
 10
7.940908457742962
 20
6.370660754101726
 10
7.93707190544092
 20
6.370913875159874
 10
7.934626922912234
 20
6.371141962267214
 10
7.933405027694338
 20
6.37135514821336
 10
7.933409001337323
 20
6.371436210530255
  0
LWPOLYLINE
  5
E0
330
1F
100
AcDbEntity
  8
0
  6
CONTINUOUS
 62
     7
100
AcDbPolyline
 90
       71
 70
   128
 43
0.0
 10
16.03991209060632
 20
6.371438992080344
 10
16.03931365997278
 20
6.371243488845481
 10
16.03736379336003
 20
6.37101560042029
 10
16.03412050595565
 20
6.370771817423158
 10
16.0295957186886
 20
6.370512537218385
 10
16.0239940741726
 20
6.370246501820537
 10
16.0172023235826
 20
6.369966161307945
 10
16.00922801684025
 20
6.369671714362754
 10
16.00000837038639
 20
6.369360578117026
 10
15.98959663103703
 20
6.369035136756552
 10
15.97799955398523
 20
6.368695390281333
 10
15.96492944747888
 20
6.368333391405397
 10
15.95062949846867
 20
6.367956292686118
 10
15.93511599889083
 20
6.367564292805645
 10
15.91826616317712
 20
6.36715441153174
 10
15.90020317426009
 20
6.366729231732342
 10
15.88095007926904
 20
6.366289548136048
 10
15.86124120742761
 20
6.365850857950502
 10
15.84044872314416
 20
6.365398458696656
 10
15.8185988524624
 20
6.364932747738811
 10
15.79554616004907
 20
6.364450347480429
 10
15.77145674418095
 20
6.363954834200197
 10
15.74636199663761
 20
6.363446207898114
 10
15.71970878631555
 20
6.362913541055971
 10
15.69203872075362
 20
6.362367562509827
 10
15.66338398646
 20
6.361808470941834
 10
15.63354033818526
 20
6.361232094026856
 10
15.60272473683638
 20
6.360642405407879
 10
15.57096936892155
 20
6.3600398024492
 10
15.53925810844384
 20
6.359442166544251
 10
15.50669728309594
 20
6.3588324110282
 10
15.47332901349349
 20
6.358210933265342
 10
15.43893633872949
 20
6.357573362248395
 10
15.4037711877692
 20
6.356924068984641
 10
15.36787568122827
 20
6.35626364952053
 10
15.33047416399601
 20
6.355577600059166
 10
15.29235441079421
 20
6.354879828350995
 10
15.2535597343314
 20
6.354170930442466
 10
15.21382171502394
 20
6.353445740597699
 10
15.1734435418316
 20
6.352709424552573
 10
15.13247428924524
 20
6.351962180989239
 10
15.09227671812656
 20
6.351228845176352
 10
15.051572110163
 20
6.350485575256003
 10
15.01040715565963
 20
6.34973296727464
 10
14.96851502448999
 20
6.34896585549638
 10
14.92620566080692
 20
6.348189405657106
 10
14.88352833778344
 20
6.347404213803264
 10
14.83957468063318
 20
6.34659319327002
 10
14.79529001902226
 20
6.345773430722211
 10
14.75072759976668
 20
6.344945323524131
 10
14.70558781018538
 20
6.344103109893454
 10
14.66022052954319
 20
6.343252948976808
 10
14.6146805941133
 20
6.342395436820639
 10
14.57044083466811
 20
6.341558190243695
 10
14.52609021058364
 20
6.340714387155824
 10
14.48167918712579
 20
6.339864623603476
 10
14.43701981098138
 20
6.339005124625815
 10
14.39234831522587
 20
6.338142645415915
 10
14.3476770181525
 20
6.337280364888164
 10
14.07948790580713
 20
6.332132907765362
 10
13.54662873934391
 20
6.322105618374799
 10
13.01375934075001
 20
6.312620135205243
 10
12.74206234604799
 20
6.308244558232281
 10
12.47035397679292
 20
6.30452165211961
 10
12.25176064760171
 20
6.302364758707337
 10
12.03315944873475
 20
6.301355056024843
 10
11.81452676495595
 20
6.30178023582424
 10
11.59589992056969
 20
6.303485723393414
 10
11.37723454426411
 20
6.306128593342755
 10
11.15857714007977
 20
6.309365125554059
 10
10.72127032866759
 20
6.316757690963401
  0
LWPOLYLINE
  5
E1
330
1F
100
AcDbEntity
  8
0
  6
CONTINUOUS
 62
     7
100
AcDbPolyline
 90
       33
 70
   128
 43
0.0
 10
11.81740055323325
 20
9.309588041958464
 10
11.81431624880118
 20
9.291264531073226
 10
11.81328914901299
 20
9.272044814683253
 10
11.81444002778016
 20
9.252893196599934
 10
11.8177884552944
 20
9.233994128363583
 10
11.82327235580169
 20
9.215522698618226
 10
11.83078860084894
 20
9.197826228596026
 10
11.84029371629837
 20
9.181085171359036
 10
11.85167036792321
 20
9.165444515205676
 10
11.86470457504871
 20
9.151198359387372
 10
11.87929476142608
 20
9.1385028184029
 10
11.8952815094658
 20
9.127456289586676
 10
11.91236418203198
 20
9.118266594466819
 10
11.93039449394428
 20
9.111047776596995
 10
11.94918897155109
 20
9.105840863841031
 10
11.9683941577567
 20
9.10274365748689
 10
11.98783181963624
 20
9.101815513826663
 10
12.00731508430772
 20
9.103035173870379
 10
12.02647754764242
 20
9.1063796898298
 10
12.04513111303928
 20
9.111846826530747
 10
12.06310657626075
 20
9.119355620997403
 10
12.08006589204751
 20
9.128764760551108
 10
12.09583231400135
 20
9.140010815915717
 10
12.11027337700807
 20
9.152962110496812
 10
12.12311751982255
 20
9.167375059979413
 10
12.13421924502336
 20
9.183132143872233
 10
12.14349778831683
 20
9.200065823452922
 10
12.15077866952303
 20
9.217857660906766
 10
12.1559640625187
 20
9.236349256890271
 10
12.15903401216549
 20
9.255356184698396
 10
12.15993076404614
 20
9.274520990309371
 10
12.15861522744778
 20
9.293662301756198
 10
12.15568461607578
 20
9.309588041958464
  0
LWPOLYLINE
  5
E2
330
1F
100
AcDbEntity
  8
0
  6
CONTINUOUS
 62
     7
100
AcDbPolyline
 90
       52
 70
   128
 43
0.0
 10
12.15994083474758
 20
9.276254715579005
 10
12.1597521984645
 20
9.268284730173402
 10
12.15891466628197
 20
9.257688042578353
 10
12.15741051823579
 20
9.247163203415526
 10
12.15524555336121
 20
9.236750917690251
 10
12.15242816597902
 20
9.226491443373017
 10
12.14896925877217
 20
9.216424516893678
 10
12.14488219311518
 20
9.206589055118216
 10
12.14018280149185
 20
9.197023105678214
 10
12.13488925090117
 20
9.187763722794507
 10
12.1290220304398
 20
9.178846619583422
 10
12.12260383954329
 20
9.170306416409466
 10
12.11565950106266
 20
9.162176144179953
 10
12.1082158867586
 20
9.154487145003928
 10
12.1003017931251
 20
9.147269320544852
 10
12.0919478296308
 20
9.140550436633084
 10
12.0831863380043
 20
9.134356619971249
 10
12.07405119355205
 20
9.128711762087796
 10
12.06457774927897
 20
9.123637718019141
 10
12.0548026558328
 20
9.119154107627524
 10
12.04476372491005
 20
9.115278315601004
 10
12.03449979887091
 20
9.112025292771312
 10
12.02405058620555
 20
9.109407655454928
 10
12.01345651562694
 20
9.107435486770922
 10
12.00275857153717
 20
9.106116485652579
 10
11.9919981407473
 20
9.10545566882417
 10
11.98121685492864
 20
9.10545566882417
 10
11.97045642413877
 20
9.106116485652579
 10
11.959758480049
 20
9.107435486770922
 10
11.94916440947039
 20
9.109407655454928
 10
11.93871519680503
 20
9.112025292771312
 10
11.92845127076589
 20
9.115278315601004
 10
11.91841233984314
 20
9.119154107627524
 10
11.90863724639697
 20
9.123637718019141
 10
11.89916380212389
 20
9.128711762087796
 10
11.89002865767164
 20
9.134356619971249
 10
11.88126716604514
 20
9.140550436633084
 10
11.87291320255084
 20
9.147269320544852
 10
11.86499910891734
 20
9.154487145003928
 10
11.85755549461328
 20
9.162176144179953
 10
11.85061115613265
 20
9.170306416409466
 10
11.84419296523613
 20
9.178846619583422
 10
11.83832574477477
 20
9.187763722794507
 10
11.83303219418409
 20
9.197023105678214
 10
11.82833280256076
 20
9.206589055118216
 10
11.82424573690378
 20
9.216424516893678
 10
11.82078682969692
 20
9.226491443373017
 10
11.81796944231473
 20
9.236750917690251
 10
11.81580447744015
 20
9.247163203415526
 10
11.81430032939397
 20
9.257688042578353
 10
11.81346279721144
 20
9.268284730173402
 10
11.8132896953889
 20
9.273967039641989
  0
LINE
  5
E3
330
1F
100
AcDbEntity
  8
0
  6
CONTINUOUS
 62
     7
100
AcDbLine
 10
11.61215634237412
 20
6.295739503758404
 30
0.0
 11
12.36105865330182
 21
6.295739503758404
 31
0.0
  0
LINE
  5
E4
330
1F
100
AcDbEntity
  8
0
  6
CONTINUOUS
 62
     7
100
AcDbLine
 10
11.98660749783797
 20
6.187222492751731
 30
0.0
 11
11.81327416092836
 21
6.187222492751731
 31
0.0
  0
LINE
  5
E5
330
1F
100
AcDbEntity
  8
0
  6
CONTINUOUS
 62
     7
100
AcDbLine
 10
12.15994083474758
 20
6.187222492751731
 30
0.0
 11
11.98660749783797
 21
6.187222492751731
 31
0.0
  0
ENDSEC
  0
SECTION
  2
OBJECTS
  0
DICTIONARY
  5
C
330
0
100
AcDbDictionary
  3
ACAD_GROUP
350
D
  3
ACAD_LAYOUT
350
1A
  3
ACAD_MLINESTYLE
350
17
  3
ACAD_PLOTSETTINGS
350
19
  3
ACAD_PLOTSTYLENAME
350
E
  3
ACDBHEADERROUNDTRIPXREC
350
1A8
  3
ACDBVARIABLEDICTIONARY
350
1A2
  0
DICTIONARY
  5
168
330
1F
100
AcDbDictionary
280
     1
  3
ACAD_LAYOUTSELFREF
360
1CA
  0
DICTIONARY
  5
16A
330
1B
100
AcDbDictionary
280
     1
  3
ACAD_LAYOUTSELFREF
360
1C9
  0
DICTIONARY
  5
D
102
{ACAD_REACTORS
330
C
102
}
330
C
100
AcDbDictionary
  0
DICTIONARY
  5
1A
102
{ACAD_REACTORS
330
C
102
}
330
C
100
AcDbDictionary
  0
DICTIONARY
  5
17
102
{ACAD_REACTORS
330
C
102
}
330
C
100
AcDbDictionary
  3
STANDARD
350
18
  0
DICTIONARY
  5
19
102
{ACAD_REACTORS
330
C
102
}
330
C
100
AcDbDictionary
  0
ACDBDICTIONARYWDFLT
  5
E
102
{ACAD_REACTORS
330
C
102
}
330
C
100
AcDbDictionary
281
     1
  3
Normal
350
F
100
AcDbDictionaryWithDefault
340
F
  0
DICTIONARY
  5
1A8
102
{ACAD_REACTORS
330
C
102
}
330
C
100
AcDbDictionary
  3
CEPSNTYPE
350
1B2
  3
DIMSTYLEDATA
350
1B6
  3
FINGERPRINTGUID
350
1B3
  3
HYPERLINKBASE
350
1AB
  3
INSUNITS
350
1B1
  3
LAYOUTDICT
350
1AD
  3
LWETCUNION
350
1B0
  3
PLOTSETDICT
350
1AE
  3
PLOTSTYLNAMDICT
350
1AF
  3
PSVPSCALE
350
1B5
  3
PUCSBASE
350
1B9
  3
PUCSORGBACK
350
1BF
  3
PUCSORGBOTTOM
350
1BB
  3
PUCSORGFRONT
350
1BE
  3
PUCSORGLEFT
350
1BC
  3
PUCSORGRIGHT
350
1BD
  3
PUCSORGTOP
350
1BA
  3
PUCSORTHOREF
350
1B7
  3
PUCSORTHOVIEW
350
1B8
  3
STYLESHEET
350
1AC
  3
TSTACKALIGN
350
1A9
  3
TSTACKSIZE
350
1AA
  3
UCSBASE
350
1C2
  3
UCSORGBACK
350
1C8
  3
UCSORGBOTTOM
350
1C4
  3
UCSORGFRONT
350
1C7
  3
UCSORGLEFT
350
1C5
  3
UCSORGRIGHT
350
1C6
  3
UCSORGTOP
350
1C3
  3
UCSORTHOREF
350
1C0
  3
UCSORTHOVIEW
350
1C1
  3
VERSIONGUID
350
1B4
  0
DICTIONARY
  5
1A2
102
{ACAD_REACTORS
330
C
102
}
330
C
100
AcDbDictionary
  3
DIMASSOC
350
1A3
  0
XRECORD
  5
1CA
102
{ACAD_REACTORS
330
168
102
}
330
168
100
AcDbXrecord
340
1F
  0
XRECORD
  5
1C9
102
{ACAD_REACTORS
330
16A
102
}
330
16A
100
AcDbXrecord
340
1B
  0
MLINESTYLE
  5
18
102
{ACAD_REACTORS
330
17
102
}
330
17
100
AcDbMlineStyle
  2
STANDARD
 70
     0
  3

 62
   256
 51
90.0
 52
90.0
 71
     2
 49
0.5
 62
   256
  6
BYLAYER
 49
-0.5
 62
   256
  6
BYLAYER
  0
ACDBPLACEHOLDER
  5
F
102
{ACAD_REACTORS
330
E
102
}
330
E
100
AcDbPlaceHolder
280
     0
  0
XRECORD
  5
1B2
102
{ACAD_REACTORS
330
1A8
102
}
330
1A8
100
AcDbXrecord
 90
        0
  0
XRECORD
  5
1B6
102
{ACAD_REACTORS
330
1A8
102
}
330
1A8
100
AcDbXrecord
1000
DSTYLE
1002
{
1070
   278
 70
    44
1002
}
  0
XRECORD
  5
1B3
102
{ACAD_REACTORS
330
1A8
102
}
330
1A8
100
AcDbXrecord
  1
{EA85919A-B047-4CCB-A1F9-F15AD1F0D00E}
  0
XRECORD
  5
1AB
102
{ACAD_REACTORS
330
1A8
102
}
330
1A8
100
AcDbXrecord
  1

  0
XRECORD
  5
1B1
102
{ACAD_REACTORS
330
1A8
102
}
330
1A8
100
AcDbXrecord
 90
        4
  0
XRECORD
  5
1AD
102
{ACAD_REACTORS
330
1A8
102
}
330
1A8
100
AcDbXrecord
340
1A
  0
XRECORD
  5
1B0
102
{ACAD_REACTORS
330
1A8
102
}
330
1A8
100
AcDbXrecord
 90
    10781
  0
XRECORD
  5
1AE
102
{ACAD_REACTORS
330
1A8
102
}
330
1A8
100
AcDbXrecord
340
19
  0
XRECORD
  5
1AF
102
{ACAD_REACTORS
330
1A8
102
}
330
1A8
100
AcDbXrecord
340
E
  0
XRECORD
  5
1B5
102
{ACAD_REACTORS
330
1A8
102
}
330
1A8
100
AcDbXrecord
 40
0.0
  0
XRECORD
  5
1B9
102
{ACAD_REACTORS
330
1A8
102
}
330
1A8
100
AcDbXrecord
340
0
  0
XRECORD
  5
1BF
102
{ACAD_REACTORS
330
1A8
102
}
330
1A8
100
AcDbXrecord
 10
0.0
 20
0.0
 30
0.0
  0
XRECORD
  5
1BB
102
{ACAD_REACTORS
330
1A8
102
}
330
1A8
100
AcDbXrecord
 10
0.0
 20
0.0
 30
0.0
  0
XRECORD
  5
1BE
102
{ACAD_REACTORS
330
1A8
102
}
330
1A8
100
AcDbXrecord
 10
0.0
 20
0.0
 30
0.0
  0
XRECORD
  5
1BC
102
{ACAD_REACTORS
330
1A8
102
}
330
1A8
100
AcDbXrecord
 10
0.0
 20
0.0
 30
0.0
  0
XRECORD
  5
1BD
102
{ACAD_REACTORS
330
1A8
102
}
330
1A8
100
AcDbXrecord
 10
0.0
 20
0.0
 30
0.0
  0
XRECORD
  5
1BA
102
{ACAD_REACTORS
330
1A8
102
}
330
1A8
100
AcDbXrecord
 10
0.0
 20
0.0
 30
0.0
  0
XRECORD
  5
1B7
102
{ACAD_REACTORS
330
1A8
102
}
330
1A8
100
AcDbXrecord
340
0
  0
XRECORD
  5
1B8
102
{ACAD_REACTORS
330
1A8
102
}
330
1A8
100
AcDbXrecord
 70
     0
  0
XRECORD
  5
1AC
102
{ACAD_REACTORS
330
1A8
102
}
330
1A8
100
AcDbXrecord
  1

  0
XRECORD
  5
1A9
102
{ACAD_REACTORS
330
1A8
102
}
330
1A8
100
AcDbXrecord
 90
        1
  0
XRECORD
  5
1AA
102
{ACAD_REACTORS
330
1A8
102
}
330
1A8
100
AcDbXrecord
 90
       70
  0
XRECORD
  5
1C2
102
{ACAD_REACTORS
330
1A8
102
}
330
1A8
100
AcDbXrecord
340
0
  0
XRECORD
  5
1C8
102
{ACAD_REACTORS
330
1A8
102
}
330
1A8
100
AcDbXrecord
 10
0.0
 20
0.0
 30
0.0
  0
XRECORD
  5
1C4
102
{ACAD_REACTORS
330
1A8
102
}
330
1A8
100
AcDbXrecord
 10
0.0
 20
0.0
 30
0.0
  0
XRECORD
  5
1C7
102
{ACAD_REACTORS
330
1A8
102
}
330
1A8
100
AcDbXrecord
 10
0.0
 20
0.0
 30
0.0
  0
XRECORD
  5
1C5
102
{ACAD_REACTORS
330
1A8
102
}
330
1A8
100
AcDbXrecord
 10
0.0
 20
0.0
 30
0.0
  0
XRECORD
  5
1C6
102
{ACAD_REACTORS
330
1A8
102
}
330
1A8
100
AcDbXrecord
 10
0.0
 20
0.0
 30
0.0
  0
XRECORD
  5
1C3
102
{ACAD_REACTORS
330
1A8
102
}
330
1A8
100
AcDbXrecord
 10
0.0
 20
0.0
 30
0.0
  0
XRECORD
  5
1C0
102
{ACAD_REACTORS
330
1A8
102
}
330
1A8
100
AcDbXrecord
340
0
  0
XRECORD
  5
1C1
102
{ACAD_REACTORS
330
1A8
102
}
330
1A8
100
AcDbXrecord
 70
     0
  0
XRECORD
  5
1B4
102
{ACAD_REACTORS
330
1A8
102
}
330
1A8
100
AcDbXrecord
  1
{44F573FD-4673-4B9F-B9E8-B643011BD813}
  0
DICTIONARYVAR
  5
1A3
102
{ACAD_REACTORS
330
1A2
102
}
330
1A2
100
DictionaryVariables
280
     0
  1
1
  0
ENDSEC
  0
EOF
