  0
SECTION
  2
HEADER
  9
$ACADVER
  1
AC1014
  9
$ACADMAINTVER
 70
     9
  9
$DWGCODEPAGE
  3
ANSI_1250
  9
$INSBASE
 10
0.0
 20
0.0
 30
0.0
  9
$EXTMIN
 10
4.172639407009063
 20
6.124601860058949
 30
0.0
  9
$EXTMAX
 10
15.5059727403424
 20
17.29781023967551
 30
0.0
  9
$LIMMIN
 10
0.0
 20
0.0
  9
$LIMMAX
 10
0.0
 20
0.0
  9
$ORTHOMODE
 70
     0
  9
$REGENMODE
 70
     1
  9
$FILLMODE
 70
     1
  9
$QTEXTMODE
 70
     0
  9
$MIRRTEXT
 70
     1
  9
$DRAGMODE
 70
     2
  9
$LTSCALE
 40
1.0
  9
$OSMODE
 70
  3007
  9
$ATTMODE
 70
     1
  9
$TEXTSIZE
 40
2.5
  9
$TRACEWID
 40
1.0
  9
$TEXTSTYLE
  7
STANDARD
  9
$CLAYER
  8
0
  9
$CELTYPE
  6
BYLAYER
  9
$CECOLOR
 62
   256
  9
$CELTSCALE
 40
1.0
  9
$DELOBJ
 70
     1
  9
$DISPSILH
 70
     0
  9
$DIMSCALE
 40
1.0
  9
$DIMASZ
 40
0.3
  9
$DIMEXO
 40
0.1
  9
$DIMDLI
 40
3.75
  9
$DIMRND
 40
0.0
  9
$DIMDLE
 40
0.0
  9
$DIMEXE
 40
0.1
  9
$DIMTP
 40
0.0
  9
$DIMTM
 40
0.0
  9
$DIMTXT
 40
0.2822222222222222
  9
$DIMCEN
 40
2.5
  9
$DIMTSZ
 40
0.0
  9
$DIMTOL
 70
     0
  9
$DIMLIM
 70
     0
  9
$DIMTIH
 70
     1
  9
$DIMTOH
 70
     1
  9
$DIMSE1
 70
     0
  9
$DIMSE2
 70
     0
  9
$DIMTAD
 70
     1
  9
$DIMZIN
 70
     0
  9
$DIMBLK
  1

  9
$DIMASO
 70
     1
  9
$DIMSHO
 70
     1
  9
$DIMPOST
  1

  9
$DIMAPOST
  1

  9
$DIMALT
 70
     0
  9
$DIMALTD
 70
     3
  9
$DIMALTF
 40
0.3937007874015748
  9
$DIMLFAC
 40
15.0
  9
$DIMTOFL
 70
     1
  9
$DIMTVP
 40
0.0
  9
$DIMTIX
 70
     0
  9
$DIMSOXD
 70
     0
  9
$DIMSAH
 70
     0
  9
$DIMBLK1
  1

  9
$DIMBLK2
  1

  9
$DIMSTYLE
  2
ISO-25
  9
$DIMCLRD
 70
     0
  9
$DIMCLRE
 70
     0
  9
$DIMCLRT
 70
     0
  9
$DIMTFAC
 40
1.0
  9
$DIMGAP
 40
0.1524
  9
$DIMJUST
 70
     0
  9
$DIMSD1
 70
     0
  9
$DIMSD2
 70
     0
  9
$DIMTOLJ
 70
     0
  9
$DIMTZIN
 70
     0
  9
$DIMALTZ
 70
     0
  9
$DIMALTTZ
 70
     0
  9
$DIMFIT
 70
     3
  9
$DIMUPT
 70
     0
  9
$DIMUNIT
 70
     2
  9
$DIMDEC
 70
     2
  9
$DIMTDEC
 70
     2
  9
$DIMALTU
 70
     2
  9
$DIMALTTD
 70
     3
  9
$DIMTXSTY
  7
STANDARD
  9
$DIMAUNIT
 70
     0
  9
$LUNITS
 70
     2
  9
$LUPREC
 70
     2
  9
$SKETCHINC
 40
1.0
  9
$FILLETRAD
 40
10.0
  9
$AUNITS
 70
     0
  9
$AUPREC
 70
     0
  9
$MENU
  1
.
  9
$ELEVATION
 40
0.0
  9
$PELEVATION
 40
0.0
  9
$THICKNESS
 40
0.0
  9
$LIMCHECK
 70
     0
  9
$BLIPMODE
 70
     0
  9
$CHAMFERA
 40
10.0
  9
$CHAMFERB
 40
10.0
  9
$CHAMFERC
 40
20.0
  9
$CHAMFERD
 40
0.0
  9
$SKPOLY
 70
     0
  9
$TDCREATE
 40
2453964.654733669
  9
$TDUPDATE
 40
2453966.372208657
  9
$TDINDWG
 40
0.0133749306
  9
$TDUSRTIMER
 40
0.0133749306
  9
$USRTIMER
 70
     1
  9
$ANGBASE
 50
0.0
  9
$ANGDIR
 70
     0
  9
$PDMODE
 70
     0
  9
$PDSIZE
 40
-1.0
  9
$PLINEWID
 40
0.0
  9
$COORDS
 70
     2
  9
$SPLFRAME
 70
     0
  9
$SPLINETYPE
 70
     6
  9
$SPLINESEGS
 70
     8
  9
$ATTDIA
 70
     0
  9
$ATTREQ
 70
     1
  9
$HANDLING
 70
 22529
  9
$HANDSEED
  5
1D0
  9
$SURFTAB1
 70
     6
  9
$SURFTAB2
 70
     6
  9
$SURFTYPE
 70
     6
  9
$SURFU
 70
     6
  9
$SURFV
 70
     6
  9
$UCSNAME
  2

  9
$UCSORG
 10
0.0
 20
0.0
 30
0.0
  9
$UCSXDIR
 10
1.0
 20
0.0
 30
0.0
  9
$UCSYDIR
 10
0.0
 20
1.0
 30
0.0
  9
$PUCSNAME
  2

  9
$PUCSORG
 10
0.0
 20
0.0
 30
0.0
  9
$PUCSXDIR
 10
1.0
 20
0.0
 30
0.0
  9
$PUCSYDIR
 10
0.0
 20
1.0
 30
0.0
  9
$USERI1
 70
     0
  9
$USERI2
 70
     0
  9
$USERI3
 70
     0
  9
$USERI4
 70
     0
  9
$USERI5
 70
     0
  9
$USERR1
 40
0.0
  9
$USERR2
 40
0.0
  9
$USERR3
 40
0.0
  9
$USERR4
 40
0.0
  9
$USERR5
 40
0.0
  9
$WORLDVIEW
 70
     1
  9
$SHADEDGE
 70
     3
  9
$SHADEDIF
 70
    70
  9
$TILEMODE
 70
     1
  9
$MAXACTVP
 70
    48
  9
$PINSBASE
 10
0.0
 20
0.0
 30
0.0
  9
$PLIMCHECK
 70
     0
  9
$PEXTMIN
 10
1.000000000000000E+20
 20
1.000000000000000E+20
 30
1.000000000000000E+20
  9
$PEXTMAX
 10
-1.000000000000000E+20
 20
-1.000000000000000E+20
 30
-1.000000000000000E+20
  9
$PLIMMIN
 10
0.0
 20
0.0
  9
$PLIMMAX
 10
420.0
 20
297.0
  9
$UNITMODE
 70
     0
  9
$VISRETAIN
 70
     1
  9
$PLINEGEN
 70
     0
  9
$PSLTSCALE
 70
     1
  9
$TREEDEPTH
 70
  3020
  9
$PICKSTYLE
 70
     1
  9
$CMLSTYLE
  2
STANDARD
  9
$CMLJUST
 70
     0
  9
$CMLSCALE
 40
20.0
  9
$PROXYGRAPHICS
 70
     1
  9
$MEASUREMENT
 70
     1
  0
ENDSEC
  0
SECTION
  2
CLASSES
  0
CLASS
  1
ACDBDICTIONARYWDFLT
  2
AcDbDictionaryWithDefault
  3
AutoCAD 2000
 90
        0
280
     0
281
     0
  0
CLASS
  1
ACDBPLACEHOLDER
  2
AcDbPlaceHolder
  3
AutoCAD 2000
 90
        0
280
     0
281
     0
  0
CLASS
  1
LAYOUT
  2
AcDbLayout
  3
AutoCAD 2000
 90
        0
280
     0
281
     0
  0
CLASS
  1
DICTIONARYVAR
  2
AcDbDictionaryVar
  3
AutoCAD 2000
 90
        0
280
     0
281
     0
  0
CLASS
  1
LONG_TRANSACTION
  2
AcDbLongTransaction
  3
AutoCAD 2000
 90
        0
280
     0
281
     0
  0
CLASS
  1
LWPOLYLINE
  2
AcDbPolyline
  3
AutoCAD 2000
 90
        0
280
     0
281
     1
  0
CLASS
  1
HATCH
  2
AcDbHatch
  3
AutoCAD 2000
 90
        0
280
     0
281
     1
  0
CLASS
  1
XRECORD
  2
AcDbXrecord
  3
AutoCAD 2000
 90
        0
280
     0
281
     0
  0
CLASS
  1
LONG_TRANSACTION
  2
AcDbLongTransaction
  3
AutoCAD 2000
 90
        0
280
     0
281
     0
  0
CLASS
  1
LWPOLYLINE
  2
AcDbPolyline
  3
AutoCAD 2000
 90
        0
280
     0
281
     1
  0
CLASS
  1
HATCH
  2
AcDbHatch
  3
AutoCAD 2000
 90
        0
280
     0
281
     1
  0
CLASS
  1
XRECORD
  2
AcDbXrecord
  3
AutoCAD 2000
 90
        0
280
     0
281
     0
  0
CLASS
  1
LONG_TRANSACTION
  2
AcDbLongTransaction
  3
AutoCAD 2000
 90
        0
280
     0
281
     0
  0
CLASS
  1
LWPOLYLINE
  2
AcDbPolyline
  3
AutoCAD 2000
 90
        0
280
     0
281
     1
  0
CLASS
  1
HATCH
  2
AcDbHatch
  3
AutoCAD 2000
 90
        0
280
     0
281
     1
  0
CLASS
  1
XRECORD
  2
AcDbXrecord
  3
AutoCAD 2000
 90
        0
280
     0
281
     0
  0
ENDSEC
  0
SECTION
  2
TABLES
  0
TABLE
  2
VPORT
  5
8
330
0
100
AcDbSymbolTable
 70
     2
  0
VPORT
  5
1AB
330
8
100
AcDbSymbolTableRecord
100
AcDbViewportTableRecord
  2
*ACTIVE
 70
     0
 10
0.0
 20
0.0
 11
1.0
 21
1.0
 12
9.838980736828307
 22
11.71130272662227
 13
0.0
 23
0.0
 14
10.0
 24
10.0
 15
10.0
 25
10.0
 16
0.0
 26
0.0
 36
1.0
 17
0.0
 27
0.0
 37
0.0
 40
11.2791100034486
 41
1.674961119751166
 42
50.0
 43
0.0
 44
0.0
 50
0.0
 51
0.0
 71
     0
 72
  2000
 73
     1
 74
     3
 75
     0
 76
     0
 77
     0
 78
     0
  0
ENDTAB
  0
TABLE
  2
LTYPE
  5
5
330
0
100
AcDbSymbolTable
 70
     1
  0
LTYPE
  5
14
330
5
100
AcDbSymbolTableRecord
100
AcDbLinetypeTableRecord
  2
BYBLOCK
 70
     0
  3

 72
    65
 73
     0
 40
0.0
  0
LTYPE
  5
15
330
5
100
AcDbSymbolTableRecord
100
AcDbLinetypeTableRecord
  2
BYLAYER
 70
     0
  3

 72
    65
 73
     0
 40
0.0
  0
LTYPE
  5
16
330
5
100
AcDbSymbolTableRecord
100
AcDbLinetypeTableRecord
  2
CONTINUOUS
 70
     0
  3
Solid line
 72
    65
 73
     0
 40
0.0
  0
ENDTAB
  0
TABLE
  2
LAYER
  5
2
330
0
100
AcDbSymbolTable
 70
     1
  0
LAYER
  5
10
330
2
100
AcDbSymbolTableRecord
100
AcDbLayerTableRecord
  2
0
 70
     0
 62
     7
  6
CONTINUOUS
  0
ENDTAB
  0
TABLE
  2
STYLE
  5
3
330
0
100
AcDbSymbolTable
 70
     1
  0
STYLE
  5
11
330
3
100
AcDbSymbolTableRecord
100
AcDbTextStyleTableRecord
  2
STANDARD
 70
     0
 40
0.0
 41
1.0
 50
0.0
 71
     0
 42
2.5
  3
ARIAL.TTF
  4

1001
ACAD
1000
Arial
1071
       34
  0
ENDTAB
  0
TABLE
  2
VIEW
  5
6
330
0
100
AcDbSymbolTable
 70
     0
  0
ENDTAB
  0
TABLE
  2
UCS
  5
7
330
0
100
AcDbSymbolTable
 70
     0
  0
ENDTAB
  0
TABLE
  2
APPID
  5
9
330
0
100
AcDbSymbolTable
 70
     1
  0
APPID
  5
12
330
9
100
AcDbSymbolTableRecord
100
AcDbRegAppTableRecord
  2
ACAD
 70
     0
  0
ENDTAB
  0
TABLE
  2
DIMSTYLE
  5
A
330
0
100
AcDbSymbolTable
 70
     1
  0
DIMSTYLE
105
27
330
A
100
AcDbSymbolTableRecord
100
AcDbDimStyleTableRecord
  2
ISO-25
 70
     0
  3

  4

  5

  6

  7

 40
1.0
 41
2.5
 42
0.625
 43
3.75
 44
1.25
 45
0.0
 46
0.0
 47
0.0
 48
0.0
140
2.5
141
2.5
142
0.0
143
0.03937007874016
144
1.0
145
0.0
146
1.0
147
0.625
 71
     0
 72
     0
 73
     0
 74
     0
 75
     0
 76
     0
 77
     1
 78
     8
170
     0
171
     3
172
     1
173
     0
174
     0
175
     0
176
     0
177
     0
178
     0
270
     2
271
     2
272
     2
273
     2
274
     3
340
11
275
     0
280
     0
281
     0
282
     0
283
     0
284
     8
285
     0
286
     0
287
     3
288
     0
  0
ENDTAB
  0
TABLE
  2
BLOCK_RECORD
  5
1
330
0
100
AcDbSymbolTable
 70
     1
  0
BLOCK_RECORD
  5
1F
102
{ACAD_XDICTIONARY
360
F5
102
}
330
1
100
AcDbSymbolTableRecord
100
AcDbBlockTableRecord
  2
*MODEL_SPACE
  0
BLOCK_RECORD
  5
1B
102
{ACAD_XDICTIONARY
360
F7
102
}
330
1
100
AcDbSymbolTableRecord
100
AcDbBlockTableRecord
  2
*PAPER_SPACE
  0
ENDTAB
  0
ENDSEC
  0
SECTION
  2
BLOCKS
  0
BLOCK
  5
20
330
1F
100
AcDbEntity
  8
0
100
AcDbBlockBegin
  2
*MODEL_SPACE
 70
     0
 10
0.0
 20
0.0
 30
0.0
  3
*MODEL_SPACE
  1

  0
ENDBLK
  5
21
330
1F
100
AcDbEntity
  8
0
100
AcDbBlockEnd
  0
BLOCK
  5
1C
330
1B
100
AcDbEntity
 67
     1
  8
0
100
AcDbBlockBegin
  2
*PAPER_SPACE
 70
     0
 10
0.0
 20
0.0
 30
0.0
  3
*PAPER_SPACE
  1

  0
ENDBLK
  5
1D
330
1B
100
AcDbEntity
 67
     1
  8
0
100
AcDbBlockEnd
  0
ENDSEC
  0
SECTION
  2
ENTITIES
  0
LINE
  5
A1
330
1F
100
AcDbEntity
  8
0
  6
CONTINUOUS
100
AcDbLine
 10
4.172639407009063
 20
17.29781023967551
 30
0.0
 11
4.172639407009063
 21
11.96447690634218
 31
0.0
  0
ARC
  5
A3
330
1F
100
AcDbEntity
  8
0
  6
CONTINUOUS
100
AcDbCircle
 10
6.689512219131775
 20
14.7644621348441
 30
0.0
 40
2.112852870934201
100
AcDbArc
 50
156.6100714261704
 51
208.7999711596347
  0
LWPOLYLINE
  5
A5
330
1F
100
AcDbEntity
  8
0
  6
CONTINUOUS
100
AcDbPolyline
 90
       38
 70
   128
 43
0.0
 10
13.81284711527932
 20
16.72161367505788
 10
13.75662599568145
 20
16.74505182115548
 10
13.69970074393393
 20
16.76686652284584
 10
13.64214464574531
 20
16.78703673387507
 10
13.58403098682416
 20
16.80554140798928
 10
13.525433052879
 20
16.82235949893461
 10
13.46642412961841
 20
16.83746996045714
 10
13.40624096412279
 20
16.85103424166065
 10
13.34566298160472
 20
16.86284762959144
 10
13.28476722330597
 20
16.87289601641089
 10
13.22363073046828
 20
16.8811652942804
 10
13.16227900718345
 20
16.88764899311959
 10
13.10073847881463
 20
16.89234701656093
 10
13.03908735880605
 20
16.895254842593
 10
12.97740386060194
 20
16.89636794920442
 10
12.85426431221794
 20
16.89648128970707
 10
12.73112439219147
 20
16.89638075233615
 10
12.46734316182217
 20
16.89638075233615
 10
10.49711895114283
 20
16.89638075233618
 10
8.526894740463493
 20
16.89638075233614
 10
7.224800805563464
 20
16.89638075233616
 10
6.899277321838455
 20
16.89638075233615
 10
6.834148834350806
 20
16.89659691046923
 10
6.769003339782596
 20
16.89685767038348
 10
6.703869740585707
 20
16.89658146035142
 10
6.638776939212029
 20
16.8951867086456
 10
6.573753838113447
 20
16.89209184353854
 10
6.508628620494935
 20
16.88693133989255
 10
6.443647278044095
 20
16.87976017040007
 10
6.378901899811793
 20
16.87059161657674
 10
6.314484574848898
 20
16.85943895993815
 10
6.250487392206277
 20
16.84631548199995
 10
6.183724297492528
 20
16.8304046592461
 10
6.117459528878824
 20
16.81232456034998
 10
6.051798255467711
 20
16.79210280759561
 10
5.986845646361733
 20
16.76976702326701
 10
5.922706870663436
 20
16.74534482964821
 10
5.865765376705337
 20
16.72161333042463
  0
LINE
  5
A7
330
1F
100
AcDbEntity
  8
0
  6
CONTINUOUS
100
AcDbLine
 10
15.5059727403424
 20
17.29781023967551
 30
0.0
 11
4.172639407009063
 21
17.29781023967551
 31
0.0
  0
ARC
  5
A8
330
1F
100
AcDbEntity
  8
0
  6
CONTINUOUS
100
AcDbCircle
 10
6.724386557143971
 20
14.75020465584015
 30
0.0
 40
2.150521551497504
100
AcDbArc
 50
113.5320403159852
 51
156.6302874323059
  0
LINE
  5
AA
330
1F
100
AcDbEntity
  8
0
  6
CONTINUOUS
100
AcDbLine
 10
15.50597274034239
 20
11.96447690634218
 30
0.0
 11
15.5059727403424
 21
17.29781023967551
 31
0.0
  0
ARC
  5
AC
330
1F
100
AcDbEntity
  8
0
  6
CONTINUOUS
100
AcDbCircle
 10
12.98934348154746
 20
14.76444255946955
 30
0.0
 40
2.112637525757681
100
AcDbArc
 50
331.1969470400794
 51
23.39304256082473
  0
LINE
  5
AE
330
1F
100
AcDbEntity
  8
0
  6
CONTINUOUS
100
AcDbLine
 10
4.172639407009063
 20
11.96447690634218
 30
0.0
 11
15.50597274034239
 21
11.96447690634218
 31
0.0
  0
LWPOLYLINE
  5
B0
330
1F
100
AcDbEntity
  8
0
  6
CONTINUOUS
100
AcDbPolyline
 90
       12
 70
   128
 43
0.0
 10
6.06063382063709
 20
12.73554225952487
 10
6.128242490962912
 20
12.71500738492544
 10
6.196518296744252
 20
12.69673552018319
 10
6.265346231535581
 20
12.68075358466875
 10
6.335378089595809
 20
12.66694846809549
 10
6.405855012749903
 20
12.65550451957133
 10
6.476657209189512
 20
12.6464415865944
 10
6.542445600719847
 20
12.640327360499
 10
6.608426467864959
 20
12.63634277587276
 10
6.674508021494694
 20
12.63417871293568
 10
6.740598472478906
 20
12.63352605190777
 10
7.005972740342208
 20
12.63352605190777
  0
LINE
  5
B4
330
1F
100
AcDbEntity
  8
0
  6
CONTINUOUS
100
AcDbLine
 10
7.005972740342208
 20
12.63352605190777
 30
0.0
 11
12.67263940700906
 21
12.63352605190777
 31
0.0
  0
LWPOLYLINE
  5
B8
330
1F
100
AcDbEntity
  8
0
  6
CONTINUOUS
100
AcDbPolyline
 90
       14
 70
   128
 43
0.0
 10
12.67263940700906
 20
12.63352605190777
 10
12.90897405743658
 20
12.63352605190777
 10
12.96810731353627
 20
12.63375716908699
 10
13.02724464560441
 20
12.63475921825104
 10
13.08633034619552
 20
12.63699524583948
 10
13.1453087078641
 20
12.64092829829187
 10
13.20422025337798
 20
12.64669568620629
 10
13.26297061445691
 20
12.65410888638256
 10
13.32149122714094
 20
12.66315807164263
 10
13.3797135274701
 20
12.67383341480841
 10
13.43991440443431
 20
12.68665588047964
 10
13.49974280280628
 20
12.70122661812996
 10
13.55912268382242
 20
12.71752804479741
 10
13.61797800871915
 20
12.73554257752004
  0
ARC
  5
B9
330
1F
100
AcDbEntity
  8
0
  6
CONTINUOUS
100
AcDbCircle
 10
12.95333304521194
 20
14.74929649053298
 30
0.0
 40
2.151701584528517
100
AcDbArc
 50
23.38248849118794
 51
66.45571010399192
  0
ARC
  5
BA
330
1F
100
AcDbEntity
  8
0
  6
CONTINUOUS
100
AcDbCircle
 10
12.95471754900977
 20
14.78144327480728
 30
0.0
 40
2.151075991220666
100
AcDbArc
 50
287.9591549072975
 51
331.2491250543207
  0
ARC
  5
BB
330
1F
100
AcDbEntity
  8
0
  6
CONTINUOUS
100
AcDbCircle
 10
6.723879104818712
 20
14.78141655472455
 30
0.0
 40
2.151049421225574
100
AcDbArc
 50
208.7504484282109
 51
252.0410406189272
  0
LWPOLYLINE
  5
BC
330
1F
100
AcDbEntity
  8
0
  6
CONTINUOUS
100
AcDbPolyline
 90
      214
 70
   128
 43
0.0
 10
11.95968317379719
 20
16.34231814605715
 10
12.01230477483542
 20
16.34155646916
 10
12.06491566532054
 20
16.33904528189467
 10
12.11742935336268
 20
16.33479237474712
 10
12.16975934707196
 20
16.32880553820334
 10
12.22181915455851
 20
16.32109256274928
 10
12.27508489733944
 20
16.311354036255
 10
12.3280340331195
 20
16.29979440087985
 10
12.38057437770017
 20
16.28643507854513
 10
12.43261374688296
 20
16.27129749117217
 10
12.48405995646934
 20
16.2544030606823
 10
12.53347874571377
 20
16.23629467470772
 10
12.58230618080059
 20
16.21652910182765
 10
12.6304612399722
 20
16.19514102337747
 10
12.67786290147102
 20
16.17216512069257
 10
12.72443014353945
 20
16.14763607510831
 10
12.77147226454315
 20
16.12077290851193
 10
12.81760569571811
 20
16.09228677542785
 10
12.86275337172143
 20
16.0622332173258
 10
12.90683822721023
 20
16.03066777567549
 10
12.94978319684162
 20
15.99764599194663
 10
12.99031108292029
 20
15.96424328922763
 10
13.02973514664575
 20
15.92947747764772
 10
13.06798747623015
 20
15.89340535686477
 10
13.10500015988562
 20
15.85608372653663
 10
13.1407052858243
 20
15.81756938632118
 10
13.17608333889675
 20
15.7766970765466
 10
13.21007323128316
 20
15.73460252163923
 10
13.24261977814584
 20
15.69136222590161
 10
13.27366779464708
 20
15.64705269363627
 10
13.30316209594919
 20
15.60175042914576
 10
13.33025071858146
 20
15.5568982740551
 10
13.35584995699492
 20
15.51112903649757
 10
13.37991465882685
 20
15.46451855515527
 10
13.40239967171451
 20
15.41714266871035
 10
13.4232598432952
 20
15.36907721584491
 10
13.44302434548074
 20
15.31888215028233
 10
13.4610534494554
 20
15.26798697831543
 10
13.47732349917325
 20
15.21648508067386
 10
13.49181083858834
 20
15.16446983808731
 10
13.50449181165474
 20
15.11203463128543
 10
13.51500863039106
 20
15.06110436555401
 10
13.52385560141864
 20
15.00981480503247
 10
13.53101804446104
 20
14.9582490704948
 10
13.53648127924182
 20
14.90649028271498
 10
13.54023062548456
 20
14.85462156246699
 10
13.54227671270489
 20
14.80116151195532
 10
13.54248039207111
 20
14.74761581348207
 10
13.54085102408749
 20
14.69407827801608
 10
13.5373979692583
 20
14.64064271652622
 10
13.53213058808784
 20
14.58740293998137
 10
13.52524477527127
 20
14.53561650882662
 10
13.51664973438425
 20
14.48404293274975
 10
13.50635909956184
 20
14.43276657447541
 10
13.49438650493905
 20
14.38187179672825
 10
13.48074558465093
 20
14.33144296223293
 10
13.46495972916664
 20
14.28006094025142
 10
13.44740099583116
 20
14.22920710045943
 10
13.42810252856685
 20
14.17897084441878
 10
13.40709747129608
 20
14.12944157369129
 10
13.3844189679412
 20
14.08070868983877
 10
13.36076313477875
 20
14.03409720242519
 10
13.33554521176039
 20
13.98826320428909
 10
13.30881557815874
 20
13.94327675549914
 10
13.28062461324642
 20
13.899207916124
 10
13.25102269629606
 20
13.85612674623234
 10
13.21911239286835
 20
13.81285292073977
 10
13.1857307206395
 20
13.7706444473394
 10
13.15093140688773
 20
13.72957774338083
 10
13.11476817889127
 20
13.68972922621365
 10
13.07729476392835
 20
13.65117531318745
 10
13.0394109889178
 20
13.61476898096334
 10
13.00029691363239
 20
13.57962316768255
 10
12.96002490189018
 20
13.54578687609554
 10
12.91866731750922
 20
13.5133091089528
 10
12.87629652430758
 20
13.4822388690048
 10
12.83165817949541
 20
13.45175130704232
 10
12.78597061819131
 20
13.42277201270244
 10
12.73931237218973
 20
13.39535316397748
 10
12.69176197328512
 20
13.3695469388598
 10
12.64339795327193
 20
13.34540551534174
 10
12.59551524245699
 20
13.32350288730534
 10
12.54688891005315
 20
13.30319198151372
 10
12.49760143779273
 20
13.28450135837436
 10
12.44773530740801
 20
13.26745957829474
 10
12.39737300063131
 20
13.25209520168237
 10
12.34505286579931
 20
13.23804319258097
 10
12.29223921407653
 20
13.22576934297523
 10
12.23902423118741
 20
13.21529171174342
 10
12.18550010285639
 20
13.2066283577638
 10
12.1317590148079
 20
13.19979733991464
 10
12.07049403890452
 20
13.19431273823992
 10
12.00903859413811
 20
13.19119564437241
 10
11.94752941100432
 20
13.19031845523039
 10
11.76219403408198
 20
13.19091956704628
 10
11.39386754602136
 20
13.19209556510102
 10
11.02085251028759
 20
13.19324490343503
 10
10.74459314966912
 20
13.19406274222013
 10
10.4683233264039
 20
13.19479705155335
 10
10.19204266810572
 20
13.19535254366126
 10
9.91575080238837
 20
13.19563393077045
 10
9.694697869349756
 20
13.19559235322965
 10
9.473648009378731
 20
13.19532357995434
 10
9.252603483962964
 20
13.19488174192778
 10
9.031566554590121
 20
13.19432097013324
 10
8.810539482747872
 20
13.19369539555399
 10
8.294155090097762
 20
13.19212866705642
 10
7.777780714206865
 20
13.19047037360498
 10
7.72224840527747
 20
13.19069628829863
 10
7.666689802191239
 20
13.19196735267917
 10
7.611193176023448
 20
13.19463250548228
 10
7.555846797849376
 20
13.19904068544365
 10
7.500738938744307
 20
13.20554083129898
 10
7.444485729143278
 20
13.21441580035086
 10
7.388531997949608
 20
13.22530743822089
 10
7.332984405229801
 20
13.23819217060921
 10
7.277949611050364
 20
13.25304642321595
 10
7.223534275477804
 20
13.26984662174127
 10
7.170980235651273
 20
13.28814753868577
 10
7.119053923459138
 20
13.30830438427155
 10
7.067850926991203
 20
13.330277895977
 10
7.017466834337277
 20
13.35402881128046
 10
6.967997233587166
 20
13.37951786766033
 10
6.917892254966659
 20
13.40765745017078
 10
6.868792491467518
 20
13.43762509063488
 10
6.820789601927317
 20
13.46935543185217
 10
6.773975245183643
 20
13.5027831166222
 10
6.728441080074072
 20
13.5378427877445
 10
6.687810362508283
 20
13.57144359459308
 10
6.648291398171809
 20
13.60641273745851
 10
6.609951745676911
 20
13.64269241227657
 10
6.572858963635863
 20
13.68022481498303
 10
6.537080610660931
 20
13.71895214151366
 10
6.501633398035028
 20
13.76004634782771
 10
6.467581681759824
 20
13.80236532624308
 10
6.434981546275257
 20
13.84583263815831
 10
6.403889076021272
 20
13.89037184497189
 10
6.37436035543781
 20
13.93590650808233
 10
6.347261861560847
 20
13.98096452069595
 10
6.321661981070569
 20
14.02694165657338
 10
6.297605878505859
 20
14.07376143787137
 10
6.275138718405595
 20
14.12134738674666
 10
6.254305665308668
 20
14.16962302535601
 10
6.234577222698818
 20
14.22003854513393
 10
6.216594126070458
 20
14.27115412555679
 10
6.200379883883329
 20
14.32287574178602
 10
6.185958004597176
 20
14.37510936898305
 10
6.173351996671744
 20
14.42776098230932
 10
6.162929879226624
 20
14.47882853154765
 10
6.154183547757466
 20
14.53025291442985
 10
6.147128758353456
 20
14.58195063544338
 10
6.141781267103787
 20
14.63383819907569
 10
6.138156830097646
 20
14.68583210981427
 10
6.136249357419373
 20
14.73942375461842
 10
6.13619420765389
 20
14.79309670545438
 10
6.137980709214789
 20
14.84675659847744
 10
6.141598190515666
 20
14.90030906984288
 10
6.147035979970114
 20
14.953659755706
 10
6.154078769137099
 20
15.00544352914069
 10
6.162832551493626
 20
15.05700934552443
 10
6.173284401715156
 20
15.10827231528916
 10
6.18542139447715
 20
15.15914754886686
 10
6.199230604455071
 20
15.20955015668946
 10
6.215196272688425
 20
15.26090496529179
 10
6.232939091805938
 20
15.31172408315324
 10
6.252425227310601
 20
15.36191776020327
 10
6.273620844705403
 20
15.41139624637134
 10
6.296492109493337
 20
15.46006979158692
 10
6.320277453644528
 20
15.50650374328364
 10
6.345618793946288
 20
15.55215615629189
 10
6.372465784408011
 20
15.59695716060129
 10
6.400768079039104
 20
15.64083688620148
 10
6.430475331848965
 20
15.68372546308207
 10
6.462490447019527
 20
15.72679930538983
 10
6.49597295444797
 20
15.7688025404163
 10
6.530869380868218
 20
15.80965807082733
 10
6.567126253014198
 20
15.84928879928879
 10
6.604690097619831
 20
15.88761762846651
 10
6.642603227712938
 20
15.92374939242238
 10
6.681735970545387
 20
15.95862139185484
 10
6.722016598965223
 20
15.99218450363604
 10
6.763373385820496
 20
16.02438960463816
 10
6.805734603959257
 20
16.05518757173337
 10
6.85035527035956
 20
16.08539470770363
 10
6.89601695485701
 20
16.11409234201063
 10
6.942640870903327
 20
16.14122888018557
 10
6.990148231950234
 20
16.16675272775969
 10
7.038460251449456
 20
16.1906122902642
 10
7.086268684313982
 20
16.21223491925066
 10
7.134811438254883
 20
16.23226821056709
 10
7.184006136131521
 20
16.2506842533321
 10
7.233770400803253
 20
16.26745513666432
 10
7.284021855129445
 20
16.28255294968237
 10
7.336218307307813
 20
16.29633522608717
 10
7.388898930793748
 20
16.30834398865442
 10
7.441971817848425
 20
16.3185616960137
 10
7.495345060733027
 20
16.32697080679457
 10
7.548926751708735
 20
16.33355377962659
 10
7.598802772197678
 20
16.33789361197406
 10
7.648794111123511
 20
16.34062251190048
 10
7.698870436349819
 20
16.34207843273676
 10
7.749001415740183
 20
16.34259932781378
 10
7.799156717158191
 20
16.34252315046246
 10
7.849306008467425
 20
16.34218785401367
 10
7.899418957531469
 20
16.34193139179833
 10
8.248857635030205
 20
16.34124686323863
 10
8.602321979594925
 20
16.34065615267485
 10
9.126505965065623
 20
16.34001236792169
 10
9.650700252085602
 20
16.33969672634981
 10
10.11250793884851
 20
16.33973127260779
 10
10.5743146587658
 20
16.34004696537467
 10
11.03611582747279
 20
16.3406075269833
 10
11.49790686060481
 20
16.34137667976651
 10
11.95968317379719
 20
16.34231814605715
  0
LWPOLYLINE
  5
C3
330
1F
100
AcDbEntity
  8
0
  6
CONTINUOUS
100
AcDbPolyline
 90
      104
 70
   128
 43
0.0
 10
9.839306073675732
 20
12.66442702072698
 10
9.849873162263815
 20
12.66448105446822
 10
9.860400940588304
 20
12.66464295468289
 10
9.87085024462236
 20
12.66491211909156
 10
9.881182202268668
 20
12.66528754638493
 10
9.891358377966177
 20
12.66576783994883
 10
9.901340915672919
 20
12.66635121305965
 10
9.91109267969297
 20
12.66703549553111
 10
9.920577392823679
 20
12.66781814178746
 10
9.929759771309237
 20
12.66869624033322
 10
9.938605656098582
 20
12.66966652458414
 10
9.947082139919297
 20
12.67072538501907
 10
9.95515768969483
 20
12.67186888260764
 10
9.962802263849614
 20
12.67309276346373
 10
9.969987424065694
 20
12.67439247467016
 10
9.976686441075145
 20
12.67576318121588
 10
9.9828743940947
 20
12.67719978398251
 10
9.988528263532698
 20
12.6786969387134
 10
9.993627016623481
 20
12.68024907589463
 10
9.998151685670668
 20
12.68185042147393
 10
10.00208543860821
 20
12.68349501834056
 10
10.00541364161683
 20
12.68517674848617
 10
10.00812391356273
 20
12.68688935576417
 10
10.01020617205626
 20
12.68862646916298
 10
10.01165267095906
 20
12.69038162650668
 10
10.0124580292002
 20
12.69214829849467
 10
10.01261925079413
 20
12.69391991299112
 10
10.01213573598594
 20
12.69568987947373
 10
10.01100928348246
 20
12.69745161355094
 10
10.009244083761
 20
12.69919856145628
 10
10.00684670348046
 20
12.70092422442879
 10
10.00382606105294
 20
12.70262218288888
 10
10.00019339346667
 20
12.70428612031956
 10
9.995962214483666
 20
12.70590984676428
 10
9.991148264367645
 20
12.70748732185404
 10
9.985769451329224
 20
12.70901267727789
 10
9.979845784906185
 20
12.71048023861346
 10
9.97339930152669
 20
12.7118845464362
 10
9.966453982532319
 20
12.71322037662878
 10
9.959035664965899
 20
12.71448275981513
 10
9.951171945456016
 20
12.71566699984689
 10
9.942892077555736
 20
12.71676869127337
 10
9.934226862917471
 20
12.71778373573009
 10
9.925208536708808
 20
12.71870835718502
 10
9.915870647695571
 20
12.71953911598559
 10
9.906247933438203
 20
12.72027292165453
 10
9.896376191065762
 20
12.72090704438653
 10
9.886292144108253
 20
12.7214391252034
 10
9.876033305882682
 20
12.72186718472953
 10
9.865637839941046
 20
12.72218963055538
 10
9.855144418099429
 20
12.72240526316131
 10
9.844592076576288
 20
12.72251328037985
 10
9.834020070775173
 20
12.72251328037985
 10
9.823467729252033
 20
12.72240526316131
 10
9.812974307410415
 20
12.72218963055538
 10
9.802578841468781
 20
12.72186718472953
 10
9.792320003243208
 20
12.7214391252034
 10
9.782235956285699
 20
12.72090704438653
 10
9.77236421391326
 20
12.72027292165453
 10
9.762741499655891
 20
12.71953911598559
 10
9.753403610642653
 20
12.71870835718502
 10
9.744385284433992
 20
12.71778373573009
 10
9.735720069795728
 20
12.71676869127337
 10
9.727440201895447
 20
12.71566699984689
 10
9.719576482385562
 20
12.71448275981513
 10
9.712158164819143
 20
12.71322037662878
 10
9.705212845824773
 20
12.7118845464362
 10
9.698766362445278
 20
12.71048023861346
 10
9.692842696022239
 20
12.70901267727789
 10
9.687463882983818
 20
12.70748732185404
 10
9.682649932867796
 20
12.70590984676428
 10
9.678418753884791
 20
12.70428612031956
 10
9.674786086298519
 20
12.70262218288888
 10
9.671765443870999
 20
12.70092422442879
 10
9.669368063590457
 20
12.69919856145628
 10
9.667602863868998
 20
12.69745161355094
 10
9.666476411365522
 20
12.69568987947373
 10
9.665992896557327
 20
12.69391991299111
 10
9.666154118151263
 20
12.69214829849467
 10
9.666959476392404
 20
12.69038162650668
 10
9.6684059752952
 20
12.68862646916298
 10
9.670488233788727
 20
12.68688935576417
 10
9.673198505734626
 20
12.68517674848617
 10
9.676526708743246
 20
12.68349501834056
 10
9.680460461680798
 20
12.68185042147392
 10
9.684985130727984
 20
12.68024907589463
 10
9.690083883818768
 20
12.6786969387134
 10
9.695737753256766
 20
12.67719978398251
 10
9.70192570627632
 20
12.67576318121588
 10
9.708624723285771
 20
12.67439247467016
 10
9.715809883501853
 20
12.67309276346373
 10
9.723454457656636
 20
12.67186888260764
 10
9.731530007432169
 20
12.67072538501907
 10
9.740006491252884
 20
12.66966652458414
 10
9.748852376042229
 20
12.66869624033322
 10
9.758034754527788
 20
12.66781814178746
 10
9.767519467658496
 20
12.66703549553111
 10
9.777271231678547
 20
12.66635121305965
 10
9.787253769385289
 20
12.66576783994883
 10
9.797429945082798
 20
12.66528754638493
 10
9.807761902729106
 20
12.66491211909156
 10
9.818211206763164
 20
12.66464295468289
 10
9.828738985087651
 20
12.66448105446822
 10
9.839306073675732
 20
12.66442702072698
  0
LWPOLYLINE
  5
C6
330
1F
100
AcDbEntity
  8
0
  6
CONTINUOUS
100
AcDbPolyline
 90
       23
 70
   128
 43
0.0
 10
9.677891449789177
 20
12.68293064059724
 10
9.683487177310604
 20
12.68517034535493
 10
9.69299229736573
 20
12.68801632083461
 10
9.704368939113363
 20
12.69067523375273
 10
9.717403152593441
 20
12.69309708039768
 10
9.731993335382808
 20
12.69525532783649
 10
9.747980086356577
 20
12.69713323490505
 10
9.765062757502066
 20
12.69869548554515
 10
9.783093070593793
 20
12.6999226789163
 10
9.801887545893054
 20
12.70080786035868
 10
9.821092733117337
 20
12.7013343830851
 10
9.840530395483947
 20
12.70149216564519
 10
9.860013660589075
 20
12.70128482396854
 10
9.879176124718545
 20
12.70071625733796
 10
9.897829687377635
 20
12.69978684030023
 10
9.91580515194339
 20
12.69851035170575
 10
9.932764470509294
 20
12.69691079729275
 10
9.948530885772489
 20
12.69499896537788
 10
9.962971952526633
 20
12.69279724427146
 10
9.975816091009976
 20
12.69034703970228
 10
9.986917815156587
 20
12.68766833745597
 10
9.996196363369049
 20
12.68478961119063
 10
10.00069279772277
 20
12.68292170866787
  0
CIRCLE
  5
C7
330
1F
100
AcDbEntity
  8
0
  6
CONTINUOUS
100
AcDbCircle
 10
9.83930607367573
 20
13.83114357300884
 30
0.0
 40
0.3665179007108037
  0
CIRCLE
  5
C8
330
1F
100
AcDbEntity
  8
0
  6
CONTINUOUS
100
AcDbCircle
 10
9.83930607367573
 20
13.83114357300884
 30
0.0
 40
0.1733333333333338
  0
LINE
  5
C9
330
1F
100
AcDbEntity
  8
0
100
AcDbLine
 10
6.428031718967794
 20
6.356475934448734
 30
0.0
 11
6.428031718967794
 21
6.183142601115402
 31
0.0
  0
LINE
  5
CA
330
1F
100
AcDbEntity
  8
0
100
AcDbLine
 10
9.355068771684143
 20
6.297935193392283
 30
0.0
 11
9.355068771684143
 21
6.124601860058949
 31
0.0
  0
LINE
  5
CB
330
1F
100
AcDbEntity
  8
0
100
AcDbLine
 10
6.428031718967794
 20
6.183142601115402
 30
0.0
 11
9.355068771684143
 21
6.124601860058949
 31
0.0
  0
LINE
  5
CC
330
1F
100
AcDbEntity
  8
0
  6
CONTINUOUS
100
AcDbLine
 10
13.25058042838367
 20
6.183142601115402
 30
0.0
 11
10.32354337566737
 21
6.124601860058958
 31
0.0
  0
LINE
  5
CD
330
1F
100
AcDbEntity
  8
0
  6
CONTINUOUS
100
AcDbLine
 10
10.32354337566737
 20
6.297935193392291
 30
0.0
 11
10.32354337566737
 21
6.124601860058958
 31
0.0
  0
LINE
  5
CE
330
1F
100
AcDbEntity
  8
0
  6
CONTINUOUS
100
AcDbLine
 10
13.25058042838367
 20
6.356475934448734
 30
0.0
 11
13.25058042838367
 21
6.183142601115402
 31
0.0
  0
LINE
  5
CF
330
1F
100
AcDbEntity
  8
0
100
AcDbLine
 10
9.355068771684143
 20
6.124601860058949
 30
0.0
 11
10.32354337566737
 21
6.124601860058958
 31
0.0
  0
LINE
  5
D0
330
1F
100
AcDbEntity
  8
0
  6
CONTINUOUS
100
AcDbLine
 10
4.708975986671153
 20
9.309588046925517
 30
0.0
 11
6.122451298187559
 21
6.364849732698449
 31
0.0
  0
LINE
  5
D1
330
1F
100
AcDbEntity
  8
0
  6
CONTINUOUS
100
AcDbLine
 10
13.55618193379482
 20
6.36489365898439
 30
0.0
 11
14.96963616068031
 21
9.309588046925517
 31
0.0
  0
LINE
  5
D2
330
1F
100
AcDbEntity
  8
0
  6
CONTINUOUS
100
AcDbLine
 10
6.428230231833853
 20
6.356471964188938
 30
0.0
 11
9.46485490674576
 21
6.295739470690699
 31
0.0
  0
LINE
  5
D3
330
1F
100
AcDbEntity
  8
0
  6
CONTINUOUS
100
AcDbLine
 10
10.2137572406057
 20
6.295739470690699
 30
0.0
 11
13.25039716807028
 21
6.35647226923999
 31
0.0
  0
ARC
  5
D4
330
1F
100
AcDbEntity
  8
0
  6
CONTINUOUS
100
AcDbCircle
 10
9.83930607367573
 20
6.749093993757123
 30
0.0
 40
0.5880000000000003
100
AcDbArc
 50
287.1446203290002
 51
309.5552288032996
  0
ARC
  5
D5
330
1F
100
AcDbEntity
  8
0
  6
CONTINUOUS
100
AcDbCircle
 10
9.83930607367573
 20
6.749093993757123
 30
0.0
 40
0.5879999999999999
100
AcDbArc
 50
230.4447711967018
 51
252.8553796710015
  0
LINE
  5
D6
330
1F
100
AcDbEntity
  8
0
  6
CONTINUOUS
100
AcDbLine
 10
4.172639407009066
 20
9.309588046925517
 30
0.0
 11
4.172639407009063
 21
9.642921380258853
 31
0.0
  0
LINE
  5
D7
330
1F
100
AcDbEntity
  8
0
  6
CONTINUOUS
100
AcDbLine
 10
4.172639407009063
 20
9.642921380258853
 30
0.0
 11
15.50597274034239
 21
9.642921380258853
 31
0.0
  0
LINE
  5
D8
330
1F
100
AcDbEntity
  8
0
  6
CONTINUOUS
100
AcDbLine
 10
15.5059727403424
 20
9.309588046925517
 30
0.0
 11
15.50597274034239
 21
9.642921380258853
 31
0.0
  0
LINE
  5
D9
330
1F
100
AcDbEntity
  8
0
  6
CONTINUOUS
100
AcDbLine
 10
15.5059727403424
 20
9.309588046925517
 30
0.0
 11
4.172639407009066
 21
9.309588046925517
 31
0.0
  0
LWPOLYLINE
  5
E6
330
1F
100
AcDbEntity
  8
0
  6
CONTINUOUS
100
AcDbPolyline
 90
       62
 70
   128
 43
0.0
 10
8.810234064845541
 20
6.312652588265364
 10
8.403556041336955
 20
6.319826707592579
 10
8.200219749635156
 20
6.32357020166064
 10
7.996885138257292
 20
6.327378314990846
 10
7.793551542019792
 20
6.331233861614271
 10
7.742714774498232
 20
6.332204164062682
 10
7.691883519962286
 20
6.33317283045896
 10
7.640998503658927
 20
6.334135998971676
 10
7.590198184075469
 20
6.335090903644541
 10
7.546076973269934
 20
6.335915233411829
 10
7.502083368954632
 20
6.336732864623408
 10
7.458267186814204
 20
6.337543229375218
 10
7.414354118827307
 20
6.33835172117378
 10
7.370671207923084
 20
6.339152656526482
 10
7.327268508293514
 20
6.339945491600993
 10
7.283244606636965
 20
6.340746980495488
 10
7.239566133381099
 20
6.341539829381789
 10
7.196286419247907
 20
6.342323459395195
 10
7.153119690731359
 20
6.343103417141435
 10
7.110412098019937
 20
6.343873834967999
 10
7.068216774531983
 20
6.344634159609628
 10
7.028004502089925
 20
6.345358313227871
 10
6.988317375321487
 20
6.34607294310525
 10
6.949201166165402
 20
6.346777588566945
 10
6.910411967734662
 20
6.347477016260152
 10
6.872245288329384
 20
6.348166277501353
 10
6.83474304899046
 20
6.348844989337604
 10
6.797133917448301
 20
6.349527544524072
 10
6.760261428437288
 20
6.350199061963343
 10
6.724170483773177
 20
6.350859088727685
 10
6.688629267826852
 20
6.351512263228717
 10
6.653930046183356
 20
6.352153599295708
 10
6.620120413660285
 20
6.352782567830756
 10
6.588383565517792
 20
6.353377265526074
 10
6.557519138461545
 20
6.353960261509536
 10
6.527559127263542
 20
6.354531276838693
 10
6.498315475939185
 20
6.355094281850562
 10
6.470014475849487
 20
6.355645283315905
 10
6.442686246166301
 20
6.356183996294668
 10
6.415781236034141
 20
6.356721796219274
 10
6.38992360293134
 20
6.357246747501327
 10
6.365146439486308
 20
6.357758477800756
 10
6.341298909102468
 20
6.358260515233406
 10
6.318586972608358
 20
6.358748922654484
 10
6.297043530637639
 20
6.359223290150112
 10
6.277460289617271
 20
6.35966579396508
 10
6.258985273969541
 20
6.360095201855636
 10
6.241641569531338
 20
6.360511221213655
 10
6.225330047023773
 20
6.360916631693765
 10
6.210185904502178
 20
6.361308439538553
 10
6.19622577467787
 20
6.361686426518669
 10
6.183188087829832
 20
6.362058515268201
 10
6.17139833395695
 20
6.362416252564162
 10
6.160865973664524
 20
6.362759504549504
 10
6.15152965973271
 20
6.36309072592819
 10
6.14347419807095
 20
6.363407371204611
 10
6.136708973213591
 20
6.363709248162027
 10
6.131441966688823
 20
6.3639846582658
 10
6.127371898964943
 20
6.364246393047068
 10
6.124508855792369
 20
6.364494193215943
 10
6.122856475545233
 20
6.364729470624677
 10
6.12254683061923
 20
6.364895588287942
  0
LWPOLYLINE
  5
E7
330
1F
100
AcDbEntity
  8
0
  6
CONTINUOUS
100
AcDbPolyline
 90
       71
 70
   128
 43
0.0
 10
13.55617991103708
 20
6.364894629908414
 10
13.55618034167358
 20
6.364894456545916
 10
13.55542412037185
 20
6.364665897175136
 10
13.55336302951497
 20
6.364420522429971
 10
13.55001018410964
 20
6.364160175717061
 10
13.54537685282927
 20
6.363885160003919
 10
13.53967114077443
 20
6.363604701073373
 10
13.53277577024072
 20
6.363310616905612
 10
13.52469929646658
 20
6.363003094482003
 10
13.51537759017807
 20
6.362679885400803
 10
13.50486443395084
 20
6.362342990294187
 10
13.49316766121072
 20
6.36199252996213
 10
13.47999630704943
 20
6.36162037639395
 10
13.46559681326019
 20
6.361233935371892
 10
13.44998467180831
 20
6.360833414180652
 10
13.43303734111273
 20
6.360415652270559
 10
13.41487858991872
 20
6.359983607877868
 10
13.39553181184144
 20
6.359537579209051
 10
13.3757352702052
 20
6.359093666363392
 10
13.35485732988334
 20
6.35863681301789
 10
13.33292475465561
 20
6.358167349976451
 10
13.309791028804
 20
6.357681991104937
 10
13.28562284314119
 20
6.357184051002295
 10
13.26045118897677
 20
6.356673897510998
 10
13.23372122927174
 20
6.356140273706302
 10
13.20597685265273
 20
6.355593979131099
 10
13.17724936985843
 20
6.355035326259786
 10
13.14733487833692
 20
6.354460116579045
 10
13.11645101855052
 20
6.353872260438057
 10
13.08462964511558
 20
6.353272018760809
 10
13.05285665261202
 20
6.352677431040798
 10
13.02023645204446
 20
6.352071208734258
 10
12.98681189553333
 20
6.351453840767764
 10
12.95236573550596
 20
6.350821043158491
 10
12.91714996284432
 20
6.350177151162364
 10
12.88120652344387
 20
6.349522601803318
 10
12.84375860226227
 20
6.348842988744199
 10
12.80559513187917
 20
6.348152327411867
 10
12.76675998354131
 20
6.347451029692331
 10
12.72698340659097
 20
6.346733844050919
 10
12.68656906026218
 20
6.346005850594781
 10
12.64556621210373
 20
6.345267537415046
 10
12.60534687443741
 20
6.344543220128263
 10
12.56462342159993
 20
6.343809349278095
 10
12.52344296735652
 20
6.343066411740148
 10
12.48153859941276
 20
6.34230921567995
 10
12.43922012191244
 20
6.34154298093702
 10
12.39653699940557
 20
6.340768236388545
 10
12.35258041752054
 20
6.339968042642024
 10
12.30829626174215
 20
6.339159158139513
 10
12.2637375794974
 20
6.338342157061811
 10
12.21860461431574
 20
6.337511105612953
 10
12.17324750524174
 20
6.336672015603356
 10
12.12772119517143
 20
6.335825503778713
 10
12.08197760204859
 20
6.334970263633545
 10
12.036129008562
 20
6.334107992701305
 10
11.99006259481184
 20
6.333236009826732
 10
11.94396544871386
 20
6.332357888848926
 10
11.75910474432828
 20
6.328840664472173
 10
11.5742440377421
 20
6.325358495787619
 10
11.39170102067762
 20
6.321965014065394
 10
11.01966189627543
 20
6.315257799576897
 10
10.74356145487361
 20
6.310574886860866
 10
10.46745292757563
 20
6.306392624303194
 10
10.19132012314155
 20
6.303102605669846
 10
9.915174009397476
 20
6.301409869214219
 10
9.731016068267365
 20
6.301521925521491
 10
9.546859684787845
 20
6.302590694193571
 10
9.362710214201456
 20
6.304436694711365
 10
9.086466949743652
 20
6.308193258759649
 10
8.810234064845541
 20
6.312652588265364
  0
LWPOLYLINE
  5
E8
330
1F
100
AcDbEntity
  8
0
  6
CONTINUOUS
100
AcDbPolyline
 90
       33
 70
   128
 43
0.0
 10
9.670099123696157
 20
9.309588046925517
 10
9.667014824897353
 20
9.291264534976496
 10
9.665987719676206
 20
9.272044815001425
 10
9.667138600588266
 20
9.252893197666169
 10
9.67048702772649
 20
9.233994130759576
 10
9.675970930191411
 20
9.215522680724195
 10
9.683487177310604
 20
9.197826223005703
 10
9.69299229736573
 20
9.18108519077224
 10
9.704368939113363
 20
9.165444526548062
 10
9.717403152593441
 20
9.151198369813021
 10
9.731993335382808
 20
9.138502796643573
 10
9.747980086356577
 20
9.127456284475556
 10
9.765062757502066
 20
9.118266574827925
 10
9.783093070593793
 20
9.111047790291776
 10
9.801887545893054
 20
9.105840840630682
 10
9.821092733117337
 20
9.102743648122302
 10
9.840530395483947
 20
9.101815515415943
 10
9.860013660589075
 20
9.103035172337392
 10
9.879176124718545
 20
9.106379681929025
 10
9.897829687377635
 20
9.111846840974509
 10
9.91580515194339
 20
9.11935559741263
 10
9.932764470509294
 20
9.128764741018468
 10
9.948530885772489
 20
9.140010811105964
 10
9.962971952526633
 20
9.152962111731984
 10
9.975816091009976
 20
9.167375079785964
 10
9.986917815156587
 20
9.183132151823096
 10
9.996196363369049
 20
9.200065835736877
 10
10.00347724258838
 20
9.217857675424227
 10
10.00866264043588
 20
9.236349259068161
 10
10.01173258418054
 20
9.25535618186328
 10
10.01262934023488
 20
9.274520998223865
 10
10.01131379751115
 20
9.293662307691457
 10
10.00838319664034
 20
9.309588046925517
  0
LWPOLYLINE
  5
E9
330
1F
100
AcDbEntity
  8
0
  6
CONTINUOUS
100
AcDbPolyline
 90
       54
 70
   128
 43
0.0
 10
10.01263642083781
 20
9.275251658139199
 10
10.01261925079413
 20
9.273648792127863
 10
10.01213573598594
 20
9.263237224583082
 10
10.01100928348246
 20
9.252874082952407
 10
10.009244083761
 20
9.242597918803358
 10
10.00684670348046
 20
9.232446960141508
 10
10.00382606105294
 20
9.222458969199799
 10
10.00019339346667
 20
9.212671101960543
 10
9.995962214483666
 20
9.203119769932744
 10
9.991148264367645
 20
9.193840504698874
 10
9.985769451329224
 20
9.184867825735071
 10
9.979845784906185
 20
9.176235111996408
 10
9.97339930152669
 20
9.167974477744989
 10
9.966453982532319
 20
9.160116653082789
 10
9.959035664965899
 20
9.152690869633659
 10
9.951171945456016
 20
9.145724751799752
 10
9.942892077555736
 20
9.139244213996951
 10
9.934226862917471
 20
9.13327336425152
 10
9.925208536708808
 20
9.127834414516684
 10
9.915870647695571
 20
9.122947598042683
 10
9.906247933438203
 20
9.118631094107772
 10
9.896376191065762
 20
9.114900960390096
 10
9.886292144108253
 20
9.11177107323208
 10
9.876033305882682
 20
9.109253076019525
 10
9.865637839941046
 20
9.107356335867441
 10
9.855144418099429
 20
9.106087908773776
 10
9.844592076576288
 20
9.105452513370627
 10
9.834020070775173
 20
9.105452513370627
 10
9.823467729252033
 20
9.106087908773776
 10
9.812974307410415
 20
9.107356335867443
 10
9.802578841468781
 20
9.109253076019525
 10
9.792320003243208
 20
9.111771073232082
 10
9.782235956285699
 20
9.114900960390096
 10
9.77236421391326
 20
9.118631094107774
 10
9.762741499655891
 20
9.122947598042685
 10
9.753403610642653
 20
9.127834414516684
 10
9.744385284433992
 20
9.133273364251522
 10
9.735720069795728
 20
9.139244213996953
 10
9.727440201895447
 20
9.145724751799754
 10
9.719576482385562
 20
9.15269086963366
 10
9.712158164819143
 20
9.160116653082791
 10
9.705212845824773
 20
9.167974477744991
 10
9.698766362445278
 20
9.17623511199641
 10
9.692842696022239
 20
9.184867825735073
 10
9.687463882983818
 20
9.193840504698878
 10
9.682649932867796
 20
9.203119769932746
 10
9.678418753884791
 20
9.212671101960545
 10
9.674786086298519
 20
9.2224589691998
 10
9.671765443870999
 20
9.232446960141512
 10
9.669368063590457
 20
9.242597918803362
 10
9.667602863868998
 20
9.252874082952411
 10
9.666476411365522
 20
9.263237224583086
 10
9.665992896557327
 20
9.273648792127865
 10
9.665985500000905
 20
9.27418132362996
  0
LINE
  5
EA
330
1F
100
AcDbEntity
  8
0
  6
CONTINUOUS
100
AcDbLine
 10
9.464854906745763
 20
6.295739470690699
 30
0.0
 11
10.2137572406057
 21
6.295739470690699
 31
0.0
  0
LINE
  5
EB
330
1F
100
AcDbEntity
  8
0
  6
CONTINUOUS
100
AcDbLine
 10
9.83930607367573
 20
6.187222517745433
 30
0.0
 11
9.665972740342398
 21
6.187222517745433
 31
0.0
  0
LINE
  5
EC
330
1F
100
AcDbEntity
  8
0
  6
CONTINUOUS
100
AcDbLine
 10
10.01263940700906
 20
6.187222517745433
 30
0.0
 11
9.83930607367573
 21
6.187222517745433
 31
0.0
  0
ENDSEC
  0
SECTION
  2
OBJECTS
  0
DICTIONARY
  5
C
330
0
100
AcDbDictionary
  3
ACAD_GROUP
350
D
  3
ACAD_LAYOUT
350
1A
  3
ACAD_MLINESTYLE
350
17
  3
ACAD_PLOTSETTINGS
350
19
  3
ACAD_PLOTSTYLENAME
350
E
  3
ACDBHEADERROUNDTRIPXREC
350
1AC
  3
ACDBVARIABLEDICTIONARY
350
131
  0
DICTIONARY
  5
F5
330
1F
100
AcDbDictionary
280
     1
  3
ACAD_LAYOUTSELFREF
360
1CE
  0
DICTIONARY
  5
F7
330
1B
100
AcDbDictionary
280
     1
  3
ACAD_LAYOUTSELFREF
360
1CD
  0
DICTIONARY
  5
D
102
{ACAD_REACTORS
330
C
102
}
330
C
100
AcDbDictionary
  0
DICTIONARY
  5
1A
102
{ACAD_REACTORS
330
C
102
}
330
C
100
AcDbDictionary
  0
DICTIONARY
  5
17
102
{ACAD_REACTORS
330
C
102
}
330
C
100
AcDbDictionary
  3
STANDARD
350
18
  0
DICTIONARY
  5
19
102
{ACAD_REACTORS
330
C
102
}
330
C
100
AcDbDictionary
  0
ACDBDICTIONARYWDFLT
  5
E
102
{ACAD_REACTORS
330
C
102
}
330
C
100
AcDbDictionary
281
     1
  3
Normal
350
F
100
AcDbDictionaryWithDefault
340
F
  0
DICTIONARY
  5
1AC
102
{ACAD_REACTORS
330
C
102
}
330
C
100
AcDbDictionary
  3
CEPSNTYPE
350
1B6
  3
DIMSTYLEDATA
350
1BA
  3
FINGERPRINTGUID
350
1B7
  3
HYPERLINKBASE
350
1AF
  3
INSUNITS
350
1B5
  3
LAYOUTDICT
350
1B1
  3
LWETCUNION
350
1B4
  3
PLOTSETDICT
350
1B2
  3
PLOTSTYLNAMDICT
350
1B3
  3
PSVPSCALE
350
1B9
  3
PUCSBASE
350
1BD
  3
PUCSORGBACK
350
1C3
  3
PUCSORGBOTTOM
350
1BF
  3
PUCSORGFRONT
350
1C2
  3
PUCSORGLEFT
350
1C0
  3
PUCSORGRIGHT
350
1C1
  3
PUCSORGTOP
350
1BE
  3
PUCSORTHOREF
350
1BB
  3
PUCSORTHOVIEW
350
1BC
  3
STYLESHEET
350
1B0
  3
TSTACKALIGN
350
1AD
  3
TSTACKSIZE
350
1AE
  3
UCSBASE
350
1C6
  3
UCSORGBACK
350
1CC
  3
UCSORGBOTTOM
350
1C8
  3
UCSORGFRONT
350
1CB
  3
UCSORGLEFT
350
1C9
  3
UCSORGRIGHT
350
1CA
  3
UCSORGTOP
350
1C7
  3
UCSORTHOREF
350
1C4
  3
UCSORTHOVIEW
350
1C5
  3
VERSIONGUID
350
1B8
  0
DICTIONARY
  5
131
102
{ACAD_REACTORS
330
C
102
}
330
C
100
AcDbDictionary
  3
DIMASSOC
350
132
  0
XRECORD
  5
1CE
102
{ACAD_REACTORS
330
F5
102
}
330
F5
100
AcDbXrecord
340
1F
  0
XRECORD
  5
1CD
102
{ACAD_REACTORS
330
F7
102
}
330
F7
100
AcDbXrecord
340
1B
  0
MLINESTYLE
  5
18
102
{ACAD_REACTORS
330
17
102
}
330
17
100
AcDbMlineStyle
  2
STANDARD
 70
     0
  3

 62
   256
 51
90.0
 52
90.0
 71
     2
 49
0.5
 62
   256
  6
BYLAYER
 49
-0.5
 62
   256
  6
BYLAYER
  0
ACDBPLACEHOLDER
  5
F
102
{ACAD_REACTORS
330
E
102
}
330
E
100
AcDbPlaceHolder
280
     0
  0
XRECORD
  5
1B6
102
{ACAD_REACTORS
330
1AC
102
}
330
1AC
100
AcDbXrecord
 90
        0
  0
XRECORD
  5
1BA
102
{ACAD_REACTORS
330
1AC
102
}
330
1AC
100
AcDbXrecord
1000
DSTYLE
1002
{
1070
   278
 70
    44
1002
}
  0
XRECORD
  5
1B7
102
{ACAD_REACTORS
330
1AC
102
}
330
1AC
100
AcDbXrecord
  1
{DD9B1271-5BB7-49CF-AAF9-587CA9C9D532}
  0
XRECORD
  5
1AF
102
{ACAD_REACTORS
330
1AC
102
}
330
1AC
100
AcDbXrecord
  1

  0
XRECORD
  5
1B5
102
{ACAD_REACTORS
330
1AC
102
}
330
1AC
100
AcDbXrecord
 90
        4
  0
XRECORD
  5
1B1
102
{ACAD_REACTORS
330
1AC
102
}
330
1AC
100
AcDbXrecord
340
1A
  0
XRECORD
  5
1B4
102
{ACAD_REACTORS
330
1AC
102
}
330
1AC
100
AcDbXrecord
 90
    10781
  0
XRECORD
  5
1B2
102
{ACAD_REACTORS
330
1AC
102
}
330
1AC
100
AcDbXrecord
340
19
  0
XRECORD
  5
1B3
102
{ACAD_REACTORS
330
1AC
102
}
330
1AC
100
AcDbXrecord
340
E
  0
XRECORD
  5
1B9
102
{ACAD_REACTORS
330
1AC
102
}
330
1AC
100
AcDbXrecord
 40
0.0
  0
XRECORD
  5
1BD
102
{ACAD_REACTORS
330
1AC
102
}
330
1AC
100
AcDbXrecord
340
0
  0
XRECORD
  5
1C3
102
{ACAD_REACTORS
330
1AC
102
}
330
1AC
100
AcDbXrecord
 10
0.0
 20
0.0
 30
0.0
  0
XRECORD
  5
1BF
102
{ACAD_REACTORS
330
1AC
102
}
330
1AC
100
AcDbXrecord
 10
0.0
 20
0.0
 30
0.0
  0
XRECORD
  5
1C2
102
{ACAD_REACTORS
330
1AC
102
}
330
1AC
100
AcDbXrecord
 10
0.0
 20
0.0
 30
0.0
  0
XRECORD
  5
1C0
102
{ACAD_REACTORS
330
1AC
102
}
330
1AC
100
AcDbXrecord
 10
0.0
 20
0.0
 30
0.0
  0
XRECORD
  5
1C1
102
{ACAD_REACTORS
330
1AC
102
}
330
1AC
100
AcDbXrecord
 10
0.0
 20
0.0
 30
0.0
  0
XRECORD
  5
1BE
102
{ACAD_REACTORS
330
1AC
102
}
330
1AC
100
AcDbXrecord
 10
0.0
 20
0.0
 30
0.0
  0
XRECORD
  5
1BB
102
{ACAD_REACTORS
330
1AC
102
}
330
1AC
100
AcDbXrecord
340
0
  0
XRECORD
  5
1BC
102
{ACAD_REACTORS
330
1AC
102
}
330
1AC
100
AcDbXrecord
 70
     0
  0
XRECORD
  5
1B0
102
{ACAD_REACTORS
330
1AC
102
}
330
1AC
100
AcDbXrecord
  1

  0
XRECORD
  5
1AD
102
{ACAD_REACTORS
330
1AC
102
}
330
1AC
100
AcDbXrecord
 90
        1
  0
XRECORD
  5
1AE
102
{ACAD_REACTORS
330
1AC
102
}
330
1AC
100
AcDbXrecord
 90
       70
  0
XRECORD
  5
1C6
102
{ACAD_REACTORS
330
1AC
102
}
330
1AC
100
AcDbXrecord
340
0
  0
XRECORD
  5
1CC
102
{ACAD_REACTORS
330
1AC
102
}
330
1AC
100
AcDbXrecord
 10
0.0
 20
0.0
 30
0.0
  0
XRECORD
  5
1C8
102
{ACAD_REACTORS
330
1AC
102
}
330
1AC
100
AcDbXrecord
 10
0.0
 20
0.0
 30
0.0
  0
XRECORD
  5
1CB
102
{ACAD_REACTORS
330
1AC
102
}
330
1AC
100
AcDbXrecord
 10
0.0
 20
0.0
 30
0.0
  0
XRECORD
  5
1C9
102
{ACAD_REACTORS
330
1AC
102
}
330
1AC
100
AcDbXrecord
 10
0.0
 20
0.0
 30
0.0
  0
XRECORD
  5
1CA
102
{ACAD_REACTORS
330
1AC
102
}
330
1AC
100
AcDbXrecord
 10
0.0
 20
0.0
 30
0.0
  0
XRECORD
  5
1C7
102
{ACAD_REACTORS
330
1AC
102
}
330
1AC
100
AcDbXrecord
 10
0.0
 20
0.0
 30
0.0
  0
XRECORD
  5
1C4
102
{ACAD_REACTORS
330
1AC
102
}
330
1AC
100
AcDbXrecord
340
0
  0
XRECORD
  5
1C5
102
{ACAD_REACTORS
330
1AC
102
}
330
1AC
100
AcDbXrecord
 70
     0
  0
XRECORD
  5
1B8
102
{ACAD_REACTORS
330
1AC
102
}
330
1AC
100
AcDbXrecord
  1
{C0056911-F1F4-4624-B1EC-50B931AA0B9D}
  0
DICTIONARYVAR
  5
132
102
{ACAD_REACTORS
330
131
102
}
330
131
100
DictionaryVariables
280
     0
  1
1
  0
ENDSEC
  0
EOF
