  0
SECTION
  2
HEADER
  9
$ACADVER
  1
AC1014
  9
$ACADMAINTVER
 70
     9
  9
$DWGCODEPAGE
  3
ANSI_1250
  9
$INSBASE
 10
0.0
 20
0.0
 30
0.0
  9
$EXTMIN
 10
2.654632858153074
 20
6.327139535575396
 30
0.0
  9
$EXTMAX
 10
13.32129952481974
 20
17.27071491849101
 30
0.0
  9
$LIMMIN
 10
0.0
 20
0.0
  9
$LIMMAX
 10
0.0
 20
0.0
  9
$ORTHOMODE
 70
     1
  9
$REGENMODE
 70
     1
  9
$FILLMODE
 70
     1
  9
$QTEXTMODE
 70
     0
  9
$MIRRTEXT
 70
     1
  9
$DRAGMODE
 70
     2
  9
$LTSCALE
 40
1.0
  9
$OSMODE
 70
  3007
  9
$ATTMODE
 70
     1
  9
$TEXTSIZE
 40
2.5
  9
$TRACEWID
 40
1.0
  9
$TEXTSTYLE
  7
STANDARD
  9
$CLAYER
  8
0
  9
$CELTYPE
  6
BYLAYER
  9
$CECOLOR
 62
   256
  9
$CELTSCALE
 40
1.0
  9
$DELOBJ
 70
     1
  9
$DISPSILH
 70
     0
  9
$DIMSCALE
 40
1.0
  9
$DIMASZ
 40
0.3
  9
$DIMEXO
 40
0.1
  9
$DIMDLI
 40
3.75
  9
$DIMRND
 40
0.0
  9
$DIMDLE
 40
0.0
  9
$DIMEXE
 40
0.1
  9
$DIMTP
 40
0.0
  9
$DIMTM
 40
0.0
  9
$DIMTXT
 40
0.2822222222222222
  9
$DIMCEN
 40
2.5
  9
$DIMTSZ
 40
0.0
  9
$DIMTOL
 70
     0
  9
$DIMLIM
 70
     0
  9
$DIMTIH
 70
     1
  9
$DIMTOH
 70
     1
  9
$DIMSE1
 70
     0
  9
$DIMSE2
 70
     0
  9
$DIMTAD
 70
     1
  9
$DIMZIN
 70
     0
  9
$DIMBLK
  1

  9
$DIMASO
 70
     1
  9
$DIMSHO
 70
     1
  9
$DIMPOST
  1

  9
$DIMAPOST
  1

  9
$DIMALT
 70
     0
  9
$DIMALTD
 70
     3
  9
$DIMALTF
 40
0.3937007874015748
  9
$DIMLFAC
 40
15.0
  9
$DIMTOFL
 70
     1
  9
$DIMTVP
 40
0.0
  9
$DIMTIX
 70
     0
  9
$DIMSOXD
 70
     0
  9
$DIMSAH
 70
     0
  9
$DIMBLK1
  1

  9
$DIMBLK2
  1

  9
$DIMSTYLE
  2
ISO-25
  9
$DIMCLRD
 70
     0
  9
$DIMCLRE
 70
     0
  9
$DIMCLRT
 70
     0
  9
$DIMTFAC
 40
1.0
  9
$DIMGAP
 40
0.1524
  9
$DIMJUST
 70
     0
  9
$DIMSD1
 70
     0
  9
$DIMSD2
 70
     0
  9
$DIMTOLJ
 70
     0
  9
$DIMTZIN
 70
     0
  9
$DIMALTZ
 70
     0
  9
$DIMALTTZ
 70
     0
  9
$DIMFIT
 70
     3
  9
$DIMUPT
 70
     0
  9
$DIMUNIT
 70
     2
  9
$DIMDEC
 70
     2
  9
$DIMTDEC
 70
     2
  9
$DIMALTU
 70
     2
  9
$DIMALTTD
 70
     3
  9
$DIMTXSTY
  7
STANDARD
  9
$DIMAUNIT
 70
     0
  9
$LUNITS
 70
     2
  9
$LUPREC
 70
     1
  9
$SKETCHINC
 40
1.0
  9
$FILLETRAD
 40
10.0
  9
$AUNITS
 70
     0
  9
$AUPREC
 70
     0
  9
$MENU
  1
.
  9
$ELEVATION
 40
0.0
  9
$PELEVATION
 40
0.0
  9
$THICKNESS
 40
0.0
  9
$LIMCHECK
 70
     0
  9
$BLIPMODE
 70
     0
  9
$CHAMFERA
 40
10.0
  9
$CHAMFERB
 40
10.0
  9
$CHAMFERC
 40
20.0
  9
$CHAMFERD
 40
0.0
  9
$SKPOLY
 70
     0
  9
$TDCREATE
 40
2453964.643542268
  9
$TDUPDATE
 40
2453966.374168830
  9
$TDINDWG
 40
0.0152879167
  9
$TDUSRTIMER
 40
0.0152879167
  9
$USRTIMER
 70
     1
  9
$ANGBASE
 50
0.0
  9
$ANGDIR
 70
     0
  9
$PDMODE
 70
     0
  9
$PDSIZE
 40
-1.0
  9
$PLINEWID
 40
0.0
  9
$COORDS
 70
     2
  9
$SPLFRAME
 70
     0
  9
$SPLINETYPE
 70
     6
  9
$SPLINESEGS
 70
     8
  9
$ATTDIA
 70
     0
  9
$ATTREQ
 70
     1
  9
$HANDLING
 70
 22529
  9
$HANDSEED
  5
16C
  9
$SURFTAB1
 70
     6
  9
$SURFTAB2
 70
     6
  9
$SURFTYPE
 70
     6
  9
$SURFU
 70
     6
  9
$SURFV
 70
     6
  9
$UCSNAME
  2

  9
$UCSORG
 10
0.0
 20
0.0
 30
0.0
  9
$UCSXDIR
 10
1.0
 20
0.0
 30
0.0
  9
$UCSYDIR
 10
0.0
 20
1.0
 30
0.0
  9
$PUCSNAME
  2

  9
$PUCSORG
 10
0.0
 20
0.0
 30
0.0
  9
$PUCSXDIR
 10
1.0
 20
0.0
 30
0.0
  9
$PUCSYDIR
 10
0.0
 20
1.0
 30
0.0
  9
$USERI1
 70
     0
  9
$USERI2
 70
     0
  9
$USERI3
 70
     0
  9
$USERI4
 70
     0
  9
$USERI5
 70
     0
  9
$USERR1
 40
0.0
  9
$USERR2
 40
0.0
  9
$USERR3
 40
0.0
  9
$USERR4
 40
0.0
  9
$USERR5
 40
0.0
  9
$WORLDVIEW
 70
     1
  9
$SHADEDGE
 70
     3
  9
$SHADEDIF
 70
    70
  9
$TILEMODE
 70
     1
  9
$MAXACTVP
 70
    48
  9
$PINSBASE
 10
0.0
 20
0.0
 30
0.0
  9
$PLIMCHECK
 70
     0
  9
$PEXTMIN
 10
1.000000000000000E+20
 20
1.000000000000000E+20
 30
1.000000000000000E+20
  9
$PEXTMAX
 10
-1.000000000000000E+20
 20
-1.000000000000000E+20
 30
-1.000000000000000E+20
  9
$PLIMMIN
 10
0.0
 20
0.0
  9
$PLIMMAX
 10
420.0
 20
297.0
  9
$UNITMODE
 70
     0
  9
$VISRETAIN
 70
     1
  9
$PLINEGEN
 70
     0
  9
$PSLTSCALE
 70
     1
  9
$TREEDEPTH
 70
  3020
  9
$PICKSTYLE
 70
     1
  9
$CMLSTYLE
  2
STANDARD
  9
$CMLJUST
 70
     0
  9
$CMLSCALE
 40
20.0
  9
$PROXYGRAPHICS
 70
     1
  9
$MEASUREMENT
 70
     1
  0
ENDSEC
  0
SECTION
  2
CLASSES
  0
CLASS
  1
ACDBDICTIONARYWDFLT
  2
AcDbDictionaryWithDefault
  3
AutoCAD 2000
 90
        0
280
     0
281
     0
  0
CLASS
  1
ACDBPLACEHOLDER
  2
AcDbPlaceHolder
  3
AutoCAD 2000
 90
        0
280
     0
281
     0
  0
CLASS
  1
LAYOUT
  2
AcDbLayout
  3
AutoCAD 2000
 90
        0
280
     0
281
     0
  0
CLASS
  1
DICTIONARYVAR
  2
AcDbDictionaryVar
  3
AutoCAD 2000
 90
        0
280
     0
281
     0
  0
CLASS
  1
LONG_TRANSACTION
  2
AcDbLongTransaction
  3
AutoCAD 2000
 90
        0
280
     0
281
     0
  0
CLASS
  1
LWPOLYLINE
  2
AcDbPolyline
  3
AutoCAD 2000
 90
        0
280
     0
281
     1
  0
CLASS
  1
HATCH
  2
AcDbHatch
  3
AutoCAD 2000
 90
        0
280
     0
281
     1
  0
CLASS
  1
XRECORD
  2
AcDbXrecord
  3
AutoCAD 2000
 90
        0
280
     0
281
     0
  0
CLASS
  1
LONG_TRANSACTION
  2
AcDbLongTransaction
  3
AutoCAD 2000
 90
        0
280
     0
281
     0
  0
CLASS
  1
LWPOLYLINE
  2
AcDbPolyline
  3
AutoCAD 2000
 90
        0
280
     0
281
     1
  0
CLASS
  1
HATCH
  2
AcDbHatch
  3
AutoCAD 2000
 90
        0
280
     0
281
     1
  0
CLASS
  1
XRECORD
  2
AcDbXrecord
  3
AutoCAD 2000
 90
        0
280
     0
281
     0
  0
ENDSEC
  0
SECTION
  2
TABLES
  0
TABLE
  2
VPORT
  5
8
330
0
100
AcDbSymbolTable
 70
     2
  0
VPORT
  5
147
330
8
100
AcDbSymbolTableRecord
100
AcDbViewportTableRecord
  2
*ACTIVE
 70
     0
 10
0.0
 20
0.0
 11
1.0
 21
1.0
 12
7.987630523808342
 22
11.79856114659756
 13
0.0
 23
0.0
 14
10.0
 24
10.0
 15
10.0
 25
10.0
 16
0.0
 26
0.0
 36
1.0
 17
0.0
 27
0.0
 37
0.0
 40
11.04765961679912
 41
1.674961119751166
 42
50.0
 43
0.0
 44
0.0
 50
0.0
 51
0.0
 71
     0
 72
  2000
 73
     1
 74
     3
 75
     0
 76
     0
 77
     0
 78
     0
  0
ENDTAB
  0
TABLE
  2
LTYPE
  5
5
330
0
100
AcDbSymbolTable
 70
     1
  0
LTYPE
  5
14
330
5
100
AcDbSymbolTableRecord
100
AcDbLinetypeTableRecord
  2
BYBLOCK
 70
     0
  3

 72
    65
 73
     0
 40
0.0
  0
LTYPE
  5
15
330
5
100
AcDbSymbolTableRecord
100
AcDbLinetypeTableRecord
  2
BYLAYER
 70
     0
  3

 72
    65
 73
     0
 40
0.0
  0
LTYPE
  5
16
330
5
100
AcDbSymbolTableRecord
100
AcDbLinetypeTableRecord
  2
CONTINUOUS
 70
     0
  3
Solid line
 72
    65
 73
     0
 40
0.0
  0
ENDTAB
  0
TABLE
  2
LAYER
  5
2
330
0
100
AcDbSymbolTable
 70
     2
  0
LAYER
  5
10
330
2
100
AcDbSymbolTableRecord
100
AcDbLayerTableRecord
  2
0
 70
     0
 62
     7
  6
CONTINUOUS
  0
LAYER
  5
30
330
2
100
AcDbSymbolTableRecord
100
AcDbLayerTableRecord
  2
REMARKS
 70
     0
 62
     5
  6
CONTINUOUS
  0
ENDTAB
  0
TABLE
  2
STYLE
  5
3
330
0
100
AcDbSymbolTable
 70
     1
  0
STYLE
  5
11
330
3
100
AcDbSymbolTableRecord
100
AcDbTextStyleTableRecord
  2
STANDARD
 70
     0
 40
0.0
 41
1.0
 50
0.0
 71
     0
 42
2.5
  3
ARIAL.TTF
  4

1001
ACAD
1000
Arial
1071
       34
  0
ENDTAB
  0
TABLE
  2
VIEW
  5
6
330
0
100
AcDbSymbolTable
 70
     0
  0
ENDTAB
  0
TABLE
  2
UCS
  5
7
330
0
100
AcDbSymbolTable
 70
     0
  0
ENDTAB
  0
TABLE
  2
APPID
  5
9
330
0
100
AcDbSymbolTable
 70
     1
  0
APPID
  5
12
330
9
100
AcDbSymbolTableRecord
100
AcDbRegAppTableRecord
  2
ACAD
 70
     0
  0
ENDTAB
  0
TABLE
  2
DIMSTYLE
  5
A
330
0
100
AcDbSymbolTable
 70
     1
  0
DIMSTYLE
105
27
330
A
100
AcDbSymbolTableRecord
100
AcDbDimStyleTableRecord
  2
ISO-25
 70
     0
  3

  4

  5

  6

  7

 40
1.0
 41
2.5
 42
0.625
 43
3.75
 44
1.25
 45
0.0
 46
0.0
 47
0.0
 48
0.0
140
2.5
141
2.5
142
0.0
143
0.03937007874016
144
1.0
145
0.0
146
1.0
147
0.625
 71
     0
 72
     0
 73
     0
 74
     0
 75
     0
 76
     0
 77
     1
 78
     8
170
     0
171
     3
172
     1
173
     0
174
     0
175
     0
176
     0
177
     0
178
     0
270
     2
271
     2
272
     2
273
     2
274
     3
340
11
275
     0
280
     0
281
     0
282
     0
283
     0
284
     8
285
     0
286
     0
287
     3
288
     0
  0
ENDTAB
  0
TABLE
  2
BLOCK_RECORD
  5
1
330
0
100
AcDbSymbolTable
 70
     1
  0
BLOCK_RECORD
  5
1F
102
{ACAD_XDICTIONARY
360
108
102
}
330
1
100
AcDbSymbolTableRecord
100
AcDbBlockTableRecord
  2
*MODEL_SPACE
  0
BLOCK_RECORD
  5
1B
102
{ACAD_XDICTIONARY
360
10A
102
}
330
1
100
AcDbSymbolTableRecord
100
AcDbBlockTableRecord
  2
*PAPER_SPACE
  0
ENDTAB
  0
ENDSEC
  0
SECTION
  2
BLOCKS
  0
BLOCK
  5
20
330
1F
100
AcDbEntity
  8
0
100
AcDbBlockBegin
  2
*MODEL_SPACE
 70
     0
 10
0.0
 20
0.0
 30
0.0
  3
*MODEL_SPACE
  1

  0
ENDBLK
  5
21
330
1F
100
AcDbEntity
  8
0
100
AcDbBlockEnd
  0
BLOCK
  5
1C
330
1B
100
AcDbEntity
 67
     1
  8
0
100
AcDbBlockBegin
  2
*PAPER_SPACE
 70
     0
 10
0.0
 20
0.0
 30
0.0
  3
*PAPER_SPACE
  1

  0
ENDBLK
  5
1D
330
1B
100
AcDbEntity
 67
     1
  8
0
100
AcDbBlockEnd
  0
ENDSEC
  0
SECTION
  2
ENTITIES
  0
POINT
  5
9D
330
1F
100
AcDbEntity
  8
REMARKS
  6
CONTINUOUS
 62
     7
100
AcDbPoint
 10
8.424587425400366
 20
6.327139535575396
 30
0.0
  0
LINE
  5
9E
330
1F
100
AcDbEntity
  8
0
  6
CONTINUOUS
 62
     7
100
AcDbLine
 10
4.629823140345302
 20
6.513831730331472
 30
0.0
 11
7.886422771792478
 21
6.448699737702527
 31
0.0
  0
LINE
  5
9F
330
1F
100
AcDbEntity
  8
0
  6
CONTINUOUS
 62
     7
100
AcDbLine
 10
8.709509611180338
 20
6.448699737702527
 30
0.0
 11
11.97781538301188
 21
6.514065853139158
 31
0.0
  0
ARC
  5
A0
330
1F
100
AcDbEntity
  8
0
  6
CONTINUOUS
 62
     7
100
AcDbCircle
 10
8.711775824649624
 20
6.335389064238126
 30
0.0
 40
0.1133333333333335
100
AcDbArc
 50
91.14576283817649
 51
126.2391284063512
  0
ARC
  5
A1
330
1F
100
AcDbEntity
  8
0
  6
CONTINUOUS
 62
     7
100
AcDbCircle
 10
7.884156558323192
 20
6.335389064238126
 30
0.0
 40
0.1133333333333337
100
AcDbArc
 50
53.76087159364829
 51
88.8542371618235
  0
ARC
  5
A2
330
1F
100
AcDbEntity
  8
0
  6
CONTINUOUS
 62
     7
100
AcDbCircle
 10
8.297966191486407
 20
6.899978815740334
 30
0.0
 40
0.5866666666666674
100
AcDbArc
 50
287.1847959010884
 51
306.2391284063529
  0
ARC
  5
A3
330
1F
100
AcDbEntity
  8
0
  6
CONTINUOUS
 62
     7
100
AcDbCircle
 10
8.297966191486407
 20
6.899978815740334
 30
0.0
 40
0.5866666666666666
100
AcDbArc
 50
233.7608715936489
 51
252.8152040989132
  0
LINE
  5
A4
330
1F
100
AcDbEntity
  8
0
  6
CONTINUOUS
 62
     7
100
AcDbLine
 10
2.654632858153075
 20
9.093806202242063
 30
0.0
 11
2.654632858153075
 21
9.327139535575396
 31
0.0
  0
LINE
  5
A5
330
1F
100
AcDbEntity
  8
0
  6
CONTINUOUS
 62
     7
100
AcDbLine
 10
2.654632858153075
 20
9.327139535575396
 30
0.0
 11
13.32129952481974
 21
9.327139535575396
 31
0.0
  0
LINE
  5
A6
330
1F
100
AcDbEntity
  8
0
  6
CONTINUOUS
 62
     7
100
AcDbLine
 10
13.32129952481974
 20
9.093806202242062
 30
0.0
 11
13.32129952481974
 21
9.327139535575396
 31
0.0
  0
LINE
  5
A7
330
1F
100
AcDbEntity
  8
0
  6
CONTINUOUS
 62
     7
100
AcDbLine
 10
13.32129952481974
 20
9.093806202242062
 30
0.0
 11
2.654632858153075
 21
9.093806202242063
 31
0.0
  0
ARC
  5
A8
330
1F
100
AcDbEntity
  8
0
  6
CONTINUOUS
 62
     7
100
AcDbCircle
 10
3.624461841231995
 20
8.136458055851985
 30
0.0
 40
1.110112048139889
100
AcDbArc
 50
42.79455979925418
 51
59.58585946359609
  0
LWPOLYLINE
  5
A9
330
1F
100
AcDbEntity
  8
0
  6
CONTINUOUS
 62
     7
100
AcDbPolyline
 90
       11
 70
   128
 43
0.0
 10
11.62485356732774
 20
8.827492367225962
 10
11.64580686039903
 20
8.859134312717198
 10
11.66839917981617
 20
8.889722335129485
 10
11.69248358729006
 20
8.919196396747938
 10
11.71791314453156
 20
8.947496459857664
 10
11.74559628003324
 20
8.97559555347788
 10
11.77455512013938
 20
9.002474950986902
 10
11.80466072583582
 20
9.028113664733474
 10
11.83578415810838
 20
9.052490707066333
 10
11.87442090924839
 20
9.080144218602587
 10
11.89544949453454
 20
9.093806202242063
  0
ARC
  5
AA
330
1F
100
AcDbEntity
  8
0
  6
CONTINUOUS
 62
     7
100
AcDbCircle
 10
17.11869585579558
 20
5.389584805990073
 30
0.0
 40
6.480857311356307
100
AcDbArc
 50
147.962708749571
 51
170.1603307353693
  0
LWPOLYLINE
  5
AB
330
1F
100
AcDbEntity
  8
0
  6
CONTINUOUS
 62
     7
100
AcDbPolyline
 90
       13
 70
   128
 43
0.0
 10
5.8302328090874
 20
6.496331341475829
 10
6.295729146070365
 20
6.48825526129203
 10
6.761235534029931
 20
6.480759735995077
 10
7.226756105794452
 20
6.474226104916565
 10
7.57594245968069
 20
6.470330388947232
 10
7.925144309845339
 20
6.46770761119829
 10
8.274352395689232
 20
6.46662069508851
 10
8.623557456613212
 20
6.467332564036654
 10
8.975176376923723
 20
6.469840309010136
 10
9.326784685435459
 20
6.473681076146823
 10
9.678380782747336
 20
6.478463239566685
 10
10.20578371787595
 20
6.48670390515501
 10
10.73317314677822
 20
6.495756453125056
  0
ARC
  5
AC
330
1F
100
AcDbEntity
  8
0
  6
CONTINUOUS
 62
     7
100
AcDbCircle
 10
-0.3754271427960222
 20
4.48999263508123
 30
0.0
 40
6.522330835438669
100
AcDbArc
 50
17.92723397394242
 51
42.42562009470378
  0
LWPOLYLINE
  5
AD
330
1F
100
AcDbEntity
  8
0
  6
CONTINUOUS
 62
     7
100
AcDbPolyline
 90
       89
 70
   128
 43
0.0
 10
8.401368021265129
 20
9.093806202242063
 10
8.401473680714891
 20
9.093728858725215
 10
8.409382710498741
 20
9.087575035961897
 10
8.416914742050323
 20
9.080979096212612
 10
8.424044289359072
 20
9.073963358049574
 10
8.430747228293698
 20
9.066551560509946
 10
8.437000878230616
 20
9.058768782770457
 10
8.442784078797984
 20
9.050641359287393
 10
8.448077261475711
 20
9.042196790689148
 10
8.452862515809131
 20
9.033463650722792
 10
8.457123650012322
 20
9.024471489569561
 10
8.460846245755966
 20
9.015250733856396
 10
8.464017706954427
 20
9.00583258370187
 10
8.46662730238691
 20
8.99624890714486
 10
8.468666202008524
 20
8.986532132313193
 10
8.470127506828346
 20
8.976715137697128
 10
8.471006272253427
 20
8.96683114089895
 10
8.471299524819741
 20
8.956913586235115
 10
8.471006272253427
 20
8.946996031571281
 10
8.470127506828346
 20
8.937112034773102
 10
8.468666202008524
 20
8.927295040157037
 10
8.46662730238691
 20
8.917578265325371
 10
8.464017706954427
 20
8.90799458876836
 10
8.460846245755965
 20
8.898576438613835
 10
8.45712365001232
 20
8.889355682900671
 10
8.452862515809131
 20
8.880363521747439
 10
8.448077261475711
 20
8.871630381781082
 10
8.442784078797984
 20
8.863185813182838
 10
8.437000878230616
 20
8.855058389699774
 10
8.430747228293697
 20
8.847275611960284
 10
8.424044289359068
 20
8.839863814420658
 10
8.416914742050321
 20
8.832848076257619
 10
8.409382710498741
 20
8.826252136508333
 10
8.401473680714889
 20
8.820098313745015
 10
8.393214414352014
 20
8.814407430555952
 10
8.384632858153073
 20
8.809198743088447
 10
8.375758049387821
 20
8.804489875892119
 10
8.366620017599862
 20
8.800296762283004
 10
8.35724968299619
 20
8.796633590430255
 10
8.347678751822995
 20
8.793512755347874
 10
8.337939609081763
 20
8.790944816953903
 10
8.328065208948673
 20
8.788938464339004
 10
8.318088963268113
 20
8.787500486365329
 10
8.308044628497555
 20
8.786635748695163
 10
8.297966191486407
 20
8.786347177327051
 10
8.287887754475258
 20
8.786635748695163
 10
8.2778434197047
 20
8.787500486365329
 10
8.267867174024139
 20
8.788938464339004
 10
8.25799277389105
 20
8.790944816953903
 10
8.248253631149818
 20
8.793512755347874
 10
8.238682699976624
 20
8.796633590430257
 10
8.229312365372951
 20
8.800296762283005
 10
8.220174333584994
 20
8.804489875892119
 10
8.21129952481974
 20
8.809198743088449
 10
8.202717968620799
 20
8.814407430555954
 10
8.194458702257923
 20
8.820098313745019
 10
8.186549672474074
 20
8.826252136508335
 10
8.179017640922493
 20
8.83284807625762
 10
8.171888093613745
 20
8.83986381442066
 10
8.165185154679118
 20
8.847275611960284
 10
8.1589315047422
 20
8.855058389699776
 10
8.15314830417483
 20
8.863185813182839
 10
8.147855121497105
 20
8.871630381781086
 10
8.143069867163681
 20
8.880363521747442
 10
8.138808732960493
 20
8.889355682900673
 10
8.13508613721685
 20
8.898576438613837
 10
8.131914676018389
 20
8.907994588768362
 10
8.129305080585904
 20
8.917578265325373
 10
8.127266180964291
 20
8.927295040157041
 10
8.125804876144471
 20
8.937112034773104
 10
8.124926110719387
 20
8.946996031571284
 10
8.124632858153074
 20
8.956913586235119
 10
8.124926110719387
 20
8.966831140898952
 10
8.125804876144471
 20
8.97671513769713
 10
8.127266180964292
 20
8.986532132313197
 10
8.129305080585906
 20
8.996248907144863
 10
8.131914676018391
 20
9.005832583701872
 10
8.135086137216852
 20
9.015250733856399
 10
8.138808732960495
 20
9.024471489569563
 10
8.143069867163683
 20
9.033463650722794
 10
8.147855121497107
 20
9.04219679068915
 10
8.153148304174834
 20
9.050641359287395
 10
8.158931504742202
 20
9.058768782770458
 10
8.16518515467912
 20
9.06655156050995
 10
8.171888093613748
 20
9.073963358049576
 10
8.179017640922497
 20
9.080979096212614
 10
8.186549672474075
 20
9.087575035961899
 10
8.194458702257927
 20
9.093728858725217
 10
8.194564361707685
 20
9.093806202242063
  0
ARC
  5
AE
330
1F
100
AcDbEntity
  8
0
  6
CONTINUOUS
 62
     7
100
AcDbCircle
 10
0.6375405475046059
 20
-309.655787199301
 30
0.0
 40
316.1948233091791
100
AcDbArc
 50
89.05902088231426
 51
89.27656304171726
  0
LWPOLYLINE
  5
AF
330
1F
100
AcDbEntity
  8
0
  6
CONTINUOUS
 62
     7
100
AcDbPolyline
 90
       25
 70
   128
 43
0.0
 10
3.77787476609596
 20
8.812408993907814
 10
3.830024857845715
 20
8.730851177563739
 10
3.880764922268524
 20
8.64821945925032
 10
3.930083681259345
 20
8.564532313570358
 10
3.977969853634121
 20
8.479808217962245
 10
4.024412155389623
 20
8.394065652652024
 10
4.069399299949196
 20
8.307323100590396
 10
4.110472802577564
 20
8.224637968322285
 10
4.150233200663714
 20
8.141095797899293
 10
4.188671028785915
 20
8.056712087631488
 10
4.225776820130193
 20
7.971502337699421
 10
4.26154110661769
 20
7.885482050069294
 10
4.302525199172695
 20
7.781598411840332
 10
4.341562108310161
 20
7.676604896884016
 10
4.378635648733903
 20
7.570528004603582
 10
4.41372963343717
 20
7.463394237207745
 10
4.446827873867635
 20
7.355230099470906
 10
4.477914180062557
 20
7.246062098493862
 10
4.506972360755166
 20
7.135916743467374
 10
4.53181354496902
 20
7.034114231910473
 10
4.554924461006324
 20
6.931533169563894
 10
4.576292634849972
 20
6.8281939789136
 10
4.595905591678923
 20
6.724117083326563
 10
4.613750855859975
 20
6.619322906924662
 10
4.629815950927456
 20
6.513831874466539
  0
LINE
  5
B0
330
1F
100
AcDbEntity
  8
0
  6
CONTINUOUS
 62
     7
100
AcDbLine
 10
3.778043869172933
 20
8.812418178647831
 30
0.0
 11
3.777874766039336
 21
8.812408993904725
 31
0.0
  0
LWPOLYLINE
  5
B1
330
1F
100
AcDbEntity
  8
0
  6
CONTINUOUS
 62
     7
100
AcDbPolyline
 90
       28
 70
   128
 43
0.0
 10
4.434263731208775
 20
8.887855705791523
 10
4.434263475757393
 20
8.887855665259424
 10
4.383062678682268
 20
8.879763216116689
 10
4.33358077116134
 20
8.872085971223512
 10
4.285816938468864
 20
8.864942983162253
 10
4.245375827179296
 20
8.859162696930857
 10
4.206302092966513
 20
8.853797081683214
 10
4.168648237306983
 20
8.848835461811889
 10
4.132466761677176
 20
8.844267161709447
 10
4.097810167553562
 20
8.840081505768456
 10
4.06473095641261
 20
8.836267818381479
 10
4.033207956372406
 20
8.832827741761214
 10
4.003296704213163
 20
8.829759982784727
 10
3.975056722880527
 20
8.827037306338496
 10
3.948547535320146
 20
8.824632477309005
 10
3.923828664477662
 20
8.822518260582738
 10
3.900959633298723
 20
8.820667421046172
 10
3.880686876953938
 20
8.819113041729305
 10
3.862164044505939
 20
8.81776854742687
 10
3.845425884824946
 20
8.816613595155569
 10
3.830507146781174
 20
8.815627841932103
 10
3.817280847661767
 20
8.814782100430523
 10
3.805942244388605
 20
8.81407703577795
 10
3.796506524507539
 20
8.813504462056876
 10
3.788988875564422
 20
8.81305619334979
 10
3.783449378668621
 20
8.812729558519544
 10
3.779798249075676
 20
8.812517498244949
 10
3.778043869172933
 20
8.812418178647831
  0
LINE
  5
B2
330
1F
100
AcDbEntity
  8
0
  6
CONTINUOUS
 62
     7
100
AcDbLine
 10
4.439055816388803
 20
8.890169150021627
 30
0.0
 11
4.434263731208775
 21
8.887855705791523
 31
0.0
  0
ARC
  5
B3
330
1F
100
AcDbEntity
  8
0
  6
CONTINUOUS
 62
     7
100
AcDbCircle
 10
2.873524135780744
 20
8.222369384919995
 30
0.0
 40
1.079959965496661
100
AcDbArc
 50
33.11776861299513
 51
53.79570384974438
  0
ARC
  5
B4
330
1F
100
AcDbEntity
  8
0
  6
CONTINUOUS
 62
     7
100
AcDbCircle
 10
17.32470507786341
 20
-401.3645958187202
 30
0.0
 40
407.9137064093778
100
AcDbArc
 50
90.75104852253373
 51
90.92589043243291
  0
LINE
  5
B5
330
1F
100
AcDbEntity
  8
0
  6
CONTINUOUS
 62
     7
100
AcDbLine
 10
11.629723172985
 20
8.825310059249826
 30
0.0
 11
11.62485356732773
 21
8.827492367225953
 31
0.0
  0
LWPOLYLINE
  5
B6
330
1F
100
AcDbEntity
  8
0
  6
CONTINUOUS
 62
     7
100
AcDbPolyline
 90
       22
 70
   128
 43
0.0
 10
12.32050733609192
 20
8.608375437798528
 10
12.30428497686005
 20
8.61304728008033
 10
12.28601519146568
 20
8.618319700676577
 10
12.2658026370557
 20
8.624175628541577
 10
12.24375197077698
 20
8.630597992629631
 10
12.2199678497764
 20
8.637569721895053
 10
12.19455493120083
 20
8.645073745292146
 10
12.16735005644827
 20
8.653178446489473
 10
12.13864562376012
 20
8.661817700027526
 10
12.10853740763755
 20
8.670977872131748
 10
12.07712118258174
 20
8.680645329027582
 10
12.04449272309385
 20
8.690806436940466
 10
12.01074780367506
 20
8.701447562095845
 10
11.96602056295042
 20
8.715773173529859
 10
11.91970300690985
 20
8.730823257923891
 10
11.87191281522627
 20
8.746498251564926
 10
11.82276766757256
 20
8.762698590739944
 10
11.77238524362163
 20
8.779324711735938
 10
11.72582819117155
 20
8.79463256244035
 10
11.67828715698459
 20
8.810029190424549
 10
11.62972342017019
 20
8.825309982937673
 10
11.629723172985
 20
8.825310059249826
  0
ARC
  5
B7
330
1F
100
AcDbEntity
  8
0
  6
CONTINUOUS
 62
     7
100
AcDbCircle
 10
10.93923899953538
 20
3.778543907928247
 30
0.0
 40
5.023462433869967
100
AcDbArc
 50
73.44927196204949
 51
74.04016663754228
  0
ARC
  5
B8
330
1F
100
AcDbEntity
  8
0
  6
CONTINUOUS
 62
     7
100
AcDbCircle
 10
28.49884340409904
 20
4.473699720418065
 30
0.0
 40
16.64654501177652
100
AcDbArc
 50
165.6698771593216
 51
172.9595551828188
  0
LWPOLYLINE
  5
B9
330
1F
100
AcDbEntity
  8
0
  6
CONTINUOUS
 62
     7
100
AcDbPolyline
 90
       55
 70
   128
 43
0.0
 10
8.471290089842083
 20
8.958693229610425
 10
8.471006272253427
 20
8.950555314244896
 10
8.470127506828346
 20
8.940671317446716
 10
8.468666202008524
 20
8.930854322830651
 10
8.46662730238691
 20
8.921137547998984
 10
8.464017706954427
 20
8.911553871441974
 10
8.460846245755965
 20
8.902135721287447
 10
8.45712365001232
 20
8.892914965574282
 10
8.452862515809131
 20
8.883922804421052
 10
8.448077261475711
 20
8.875189664454696
 10
8.442784078797984
 20
8.866745095856451
 10
8.437000878230616
 20
8.858617672373387
 10
8.430747228293697
 20
8.850834894633898
 10
8.424044289359068
 20
8.843423097094269
 10
8.416914742050321
 20
8.836407358931232
 10
8.409382710498741
 20
8.829811419181947
 10
8.401473680714889
 20
8.823657596418629
 10
8.393214414352014
 20
8.817966713229566
 10
8.384632858153073
 20
8.812758025762059
 10
8.375758049387821
 20
8.808049158565731
 10
8.366620017599862
 20
8.803856044956617
 10
8.35724968299619
 20
8.800192873103869
 10
8.347678751822995
 20
8.797072038021488
 10
8.337939609081763
 20
8.794504099627516
 10
8.328065208948673
 20
8.792497747012616
 10
8.318088963268113
 20
8.791059769038943
 10
8.308044628497555
 20
8.790195031368776
 10
8.297966191486407
 20
8.789906460000665
 10
8.287887754475258
 20
8.790195031368776
 10
8.2778434197047
 20
8.791059769038943
 10
8.267867174024139
 20
8.792497747012617
 10
8.25799277389105
 20
8.794504099627516
 10
8.248253631149818
 20
8.797072038021488
 10
8.238682699976624
 20
8.800192873103869
 10
8.229312365372951
 20
8.803856044956617
 10
8.220174333584994
 20
8.808049158565733
 10
8.21129952481974
 20
8.812758025762061
 10
8.202717968620799
 20
8.817966713229568
 10
8.194458702257923
 20
8.82365759641863
 10
8.186549672474074
 20
8.829811419181949
 10
8.179017640922493
 20
8.836407358931234
 10
8.171888093613745
 20
8.843423097094271
 10
8.165185154679118
 20
8.8508348946339
 10
8.1589315047422
 20
8.858617672373389
 10
8.15314830417483
 20
8.866745095856453
 10
8.147855121497105
 20
8.875189664454698
 10
8.143069867163681
 20
8.883922804421054
 10
8.138808732960493
 20
8.892914965574286
 10
8.13508613721685
 20
8.90213572128745
 10
8.131914676018389
 20
8.911553871441975
 10
8.129305080585904
 20
8.921137547998988
 10
8.127266180964291
 20
8.930854322830652
 10
8.125804876144471
 20
8.940671317446719
 10
8.124926110719387
 20
8.950555314244896
 10
8.124642293133231
 20
8.958693229374766
  0
ARC
  5
BA
330
1F
100
AcDbEntity
  8
0
  6
CONTINUOUS
 62
     7
100
AcDbCircle
 10
13.28745516700084
 20
8.359551878193801
 30
0.0
 40
0.946666666666667
100
AcDbArc
 50
129.1386528017843
 51
165.6698781817578
  0
LINE
  5
BB
330
1F
100
AcDbEntity
  8
0
  6
CONTINUOUS
 62
     7
100
AcDbLine
 10
8.297966191486407
 20
6.339502827554102
 30
0.0
 11
8.124632858153074
 21
6.339502827554102
 31
0.0
  0
LINE
  5
BC
330
1F
100
AcDbEntity
  8
0
  6
CONTINUOUS
 62
     7
100
AcDbLine
 10
8.471299524819741
 20
6.339502827554102
 30
0.0
 11
8.297966191486407
 21
6.339502827554102
 31
0.0
  0
ARC
  5
BD
330
1F
100
AcDbEntity
  8
0
  6
CONTINUOUS
 62
     7
100
AcDbCircle
 10
2.873335370459338
 20
8.222317078244158
 30
0.0
 40
1.079999994069568
100
AcDbArc
 50
33.11911474816969
 51
53.79748420610702
  0
LINE
  5
BE
330
1F
100
AcDbEntity
  8
0
  6
CONTINUOUS
 62
     7
100
AcDbLine
 10
3.77787476609596
 20
8.812408993907814
 30
0.0
 11
3.77804386479407
 21
8.812418183838875
 31
0.0
  0
ARC
  5
BF
330
1F
100
AcDbEntity
  8
0
  6
CONTINUOUS
 62
     7
100
AcDbCircle
 10
13.23788947823659
 20
8.367894943177164
 30
0.0
 40
0.9483780169422372
100
AcDbArc
 50
130.0258186612194
 51
165.3111150088589
  0
LINE
  5
C0
330
1F
100
AcDbEntity
  8
0
  6
CONTINUOUS
 62
     7
100
AcDbLine
 10
8.297966191486407
 20
6.448699737702527
 30
0.0
 11
7.886422771792478
 21
6.448699737702527
 31
0.0
  0
LINE
  5
C1
330
1F
100
AcDbEntity
  8
0
  6
CONTINUOUS
 62
     7
100
AcDbLine
 10
8.709509611180338
 20
6.448699737702527
 30
0.0
 11
8.297966191486407
 21
6.448699737702527
 31
0.0
  0
LINE
  5
C2
330
1F
100
AcDbEntity
  8
0
  6
CONTINUOUS
 62
     7
100
AcDbLine
 10
7.951154308454379
 20
6.426798833528961
 30
0.0
 11
8.644778074518438
 21
6.426798833528961
 31
0.0
  0
LWPOLYLINE
  5
C3
330
1F
100
AcDbEntity
  8
0
  6
CONTINUOUS
 62
     7
100
AcDbPolyline
 90
       28
 70
   128
 43
0.0
 10
2.896616155135328
 20
14.89742398790478
 10
2.896616158627536
 20
14.89742358792015
 10
2.897991995844374
 20
14.8264511479579
 10
2.900876691183253
 20
14.75552400071102
 10
2.90527501746226
 20
14.68454596115163
 10
2.911177602102535
 20
14.61367717035234
 10
2.919080038721255
 20
14.53863727791554
 10
2.928667257775842
 20
14.46376532336226
 10
2.939930771448087
 20
14.38911757371207
 10
2.952862091919784
 20
14.31475029598454
 10
2.967452731372723
 20
14.24071975719923
 10
2.98392536569437
 20
14.16608791796969
 10
3.002102189830511
 20
14.09182193085904
 10
3.021970211291062
 20
14.01798021494233
 10
3.043516437585934
 20
13.94462118929467
 10
3.066727876225043
 20
13.87180327299113
 10
3.090196548141387
 20
13.80348900974817
 10
3.115151755670849
 20
13.73568523189822
 10
3.141583256618752
 20
13.66844352254958
 10
3.16948080879042
 20
13.60181546481056
 10
3.199082076003694
 20
13.5353033836651
 10
3.230170099285691
 20
13.46945278576911
 10
3.262727719090379
 20
13.40431660459877
 10
3.296737775871723
 20
13.33994777363024
 10
3.32508083990367
 20
13.28886191136188
 10
3.354354689283792
 20
13.23830382606427
 10
3.384597311762491
 20
13.18822640585456
 10
3.415765482318287
 20
13.13872004442428
  0
LWPOLYLINE
  5
C5
330
1F
100
AcDbEntity
  8
0
  6
CONTINUOUS
 62
     7
100
AcDbPolyline
 90
       28
 70
   128
 43
0.0
 10
4.445553378475358
 20
13.21461283391977
 10
4.445553123592222
 20
13.21461313940636
 10
4.394779191021338
 20
13.27723145329676
 10
4.345708140484397
 20
13.34126590466618
 10
4.298338166394685
 20
13.40661253907939
 10
4.258239232860776
 20
13.46492647894196
 10
4.219494028273532
 20
13.52424196876979
 10
4.182154837517735
 20
13.58451261284643
 10
4.146273945478171
 20
13.64569201545545
 10
4.111903637039618
 20
13.70773378088041
 10
4.079096197086863
 20
13.77059151340484
 10
4.047841126836615
 20
13.83432705561758
 10
4.018182071032613
 20
13.89889681594354
 10
3.990178440946336
 20
13.96424265010772
 10
3.963889647849264
 20
14.03030641383512
 10
3.939375103012874
 20
14.09702996285074
 10
3.916694217708645
 20
14.1643551528796
 10
3.896590205338264
 20
14.22981447152466
 10
3.878220832341038
 20
14.29581199352442
 10
3.861620804755388
 20
14.36227962605554
 10
3.846824828619736
 20
14.42914927629467
 10
3.833707609847919
 20
14.49720531608258
 10
3.822462380634266
 20
14.56562406313627
 10
3.813104263312861
 20
14.63432751439834
 10
3.805648380217787
 20
14.7032376668114
 10
3.800154371390382
 20
14.77155508058995
 10
3.79653320402533
 20
14.84001070417394
 10
3.794793209467549
 20
14.90852719535063
  0
LWPOLYLINE
  5
C6
330
1F
100
AcDbEntity
  8
0
  6
CONTINUOUS
 62
     7
100
AcDbPolyline
 90
       26
 70
   128
 43
0.0
 10
3.415765482318288
 20
13.13872004442428
 10
3.465949847817659
 20
13.13890400507829
 10
3.516113681123421
 20
13.13937829121666
 10
3.566178316064533
 20
13.14014144219356
 10
3.61606508646995
 20
13.14119199736317
 10
3.665695326168626
 20
13.14252849607964
 10
3.716422051757358
 20
13.1442004466764
 10
3.766849413903591
 20
13.14617533509854
 10
3.816888156740062
 20
13.14845160874483
 10
3.866449024399509
 20
13.15102771501404
 10
3.915442761014667
 20
13.15390210130495
 10
3.968548245313658
 20
13.157404205042
 10
4.020871199144195
 20
13.16127097787487
 10
4.072274319954981
 20
13.16550088109823
 10
4.110517975872183
 20
13.16894594589219
 10
4.148137804148954
 20
13.17260197064563
 10
4.184454933918456
 20
13.17640209803853
 10
4.220065373833347
 20
13.18040832259128
 10
4.257499046079118
 20
13.18494725679621
 10
4.293997515578693
 20
13.18973096263144
 10
4.329446329918215
 20
13.19475725732618
 10
4.363731036683828
 20
13.20002395810963
 10
4.384985830168759
 20
13.20351572854682
 10
4.405708089509994
 20
13.20710740415192
 10
4.425928434119475
 20
13.21081008875551
 10
4.445553378475356
 20
13.21461283391977
  0
LWPOLYLINE
  5
C7
330
1F
100
AcDbEntity
  8
0
  6
CONTINUOUS
 62
     7
100
AcDbPolyline
 90
       13
 70
   128
 43
0.0
 10
5.825795076198193
 20
13.64573247827066
 10
6.445018522541073
 20
13.64766010150292
 10
7.06426160964575
 20
13.64937021419174
 10
7.373911420675219
 20
13.65008900463013
 10
7.683572724042968
 20
13.65066014538033
 10
7.993241717007546
 20
13.65103601918449
 10
8.302914596827502
 20
13.65116900878476
 10
8.606959553360614
 20
13.65103271770527
 10
8.911000643686614
 20
13.65066254250395
 10
9.215034264661738
 20
13.65010379127115
 10
9.519056813142222
 20
13.64940177209722
 10
10.12713718058622
 20
13.64773048598078
 10
10.73519824010715
 20
13.6458445049913
  0
LWPOLYLINE
  5
C8
330
1F
100
AcDbEntity
  8
0
  6
CONTINUOUS
 62
     7
100
AcDbPolyline
 90
       23
 70
   128
 43
0.0
 10
11.6174686688954
 20
13.22635823678441
 10
11.56326584408212
 20
13.24244684618704
 10
11.51046450351641
 20
13.25869651432519
 10
11.45907746393353
 20
13.27510314800355
 10
11.40918383562501
 20
13.29164148278736
 10
11.36079716085665
 20
13.30830719393551
 10
11.31391743962843
 20
13.32510028144799
 10
11.26060096810201
 20
13.34505566049422
 10
11.20937770117408
 20
13.36518796920978
 10
11.16024763884464
 20
13.38549720759468
 10
11.11321078111371
 20
13.40598337564893
 10
11.07257932809694
 20
13.42461455879647
 10
11.03374536445381
 20
13.44334942914348
 10
10.99670889018433
 20
13.46218798668999
 10
10.96146990528847
 20
13.48113023143598
 10
10.92802840976626
 20
13.50017616338145
 10
10.89638440361768
 20
13.51932578252641
 10
10.86653788684274
 20
13.53857908887086
 10
10.83578699380862
 20
13.55987455581693
 10
10.80726802799637
 20
13.58125552603388
 10
10.78099694687079
 20
13.6027108062871
 10
10.75697375043188
 20
13.62424039657662
 10
10.73519843867964
 20
13.64584429690241
  0
LWPOLYLINE
  5
C9
330
1F
100
AcDbEntity
  8
0
  6
CONTINUOUS
 62
     7
100
AcDbPolyline
 90
       27
 70
   128
 43
0.0
 10
11.61747764377609
 20
13.22635921162698
 10
11.63875878643091
 20
13.22050327567383
 10
11.66170440464975
 20
13.21483938858006
 10
11.68617303018838
 20
13.20937967128897
 10
11.71202319480256
 20
13.20413624474392
 10
11.74017948984467
 20
13.19892939315504
 10
11.76964542524254
 20
13.19394732853141
 10
11.80028919767192
 20
13.18919408712184
 10
11.83197900380855
 20
13.18467370517512
 10
11.87120640934906
 20
13.17955993543865
 10
11.91173419686632
 20
13.17476283972549
 10
11.95339840042119
 20
13.17028224393972
 10
11.99603505407453
 20
13.16611797398544
 10
12.04082441257525
 20
13.16215615255815
 10
12.0864992965348
 20
13.15851196837513
 10
12.13293393848492
 20
13.15518380620332
 10
12.18000257095739
 20
13.15217005080969
 10
12.22743402076984
 20
13.14947674097661
 10
12.27540498477356
 20
13.14708471434725
 10
12.32381933187068
 20
13.14499330747342
 10
12.37258093096331
 20
13.1432018569069
 10
12.42262871790616
 20
13.14168140914278
 10
12.47297153410324
 20
13.1404686949657
 10
12.52351907352717
 20
13.1395641910917
 10
12.57418103015058
 20
13.13896837423679
 10
12.60685851396315
 20
13.13874802361144
 10
12.63955533802996
 20
13.13865583583363
  0
LWPOLYLINE
  5
CA
330
1F
100
AcDbEntity
  8
0
  6
CONTINUOUS
 62
     7
100
AcDbPolyline
 90
        5
 70
   128
 43
0.0
 10
10.16335863235662
 20
13.13940968939351
 10
11.08279574525485
 20
13.13930450371152
 10
12.00223285815308
 20
13.1390310935517
 10
12.32089453837237
 20
13.13887712277113
 10
12.63955533802996
 20
13.13865583583363
  0
LINE
  5
CB
330
1F
100
AcDbEntity
  8
0
  6
CONTINUOUS
 62
     7
100
AcDbLine
 10
10.16335863235662
 20
13.13940968939351
 30
0.0
 11
5.812573750656928
 21
13.13940968940401
 31
0.0
  0
LWPOLYLINE
  5
CC
330
1F
100
AcDbEntity
  8
0
  6
CONTINUOUS
 62
     7
100
AcDbPolyline
 90
        4
 70
   128
 43
0.0
 10
3.415765482318289
 20
13.13872004442428
 10
3.973699524819739
 20
13.1390310935517
 10
4.893135537449989
 20
13.13930450348405
 10
5.812573750616183
 20
13.13940968940401
  0
LWPOLYLINE
  5
CD
330
1F
100
AcDbEntity
  8
0
  6
CONTINUOUS
 62
     7
100
AcDbPolyline
 90
       25
 70
   128
 43
0.0
 10
5.825794221026666
 20
13.6457319984966
 10
5.787551710070926
 20
13.62494521179564
 10
5.74715802997806
 20
13.60428809705766
 10
5.704613180748068
 20
13.58376065428267
 10
5.659917162380949
 20
13.56336288347066
 10
5.613071033064663
 20
13.54309523373599
 10
5.564150684110885
 20
13.52298991547241
 10
5.513202801476096
 20
13.50306674361048
 10
5.464719443709153
 20
13.4849638466246
 10
5.414532394446363
 20
13.46701400321233
 10
5.362641653687724
 20
13.44921721337366
 10
5.309047221433237
 20
13.43157347710859
 10
5.253749097682902
 20
13.41408279441713
 10
5.196747282436719
 20
13.39674516529928
 10
5.134993536592014
 20
13.37868668685213
 10
5.071505303956299
 20
13.36084320116768
 10
5.006282584529574
 20
13.34321470824592
 10
4.93932537831184
 20
13.32580120808687
 10
4.870633685303096
 20
13.30860270069051
 10
4.800207505503343
 20
13.29161918605685
 10
4.732217030525196
 20
13.27580307379389
 10
4.662684632187534
 20
13.26017808570935
 10
4.591687714124559
 20
13.2447612974372
 10
4.51931471582647
 20
13.22957221921148
 10
4.445565733482655
 20
13.21461087225261
  0
LWPOLYLINE
  5
CE
330
1F
100
AcDbEntity
  8
0
  6
CONTINUOUS
 62
     7
100
AcDbPolyline
 90
      109
 70
   128
 43
0.0
 10
8.297966191486407
 20
13.17284652539062
 10
8.308044628497556
 20
13.17289871382954
 10
8.318088963268115
 20
13.17305510255712
 10
8.328065208948675
 20
13.17331516240342
 10
8.337939609081765
 20
13.17367801340824
 10
8.347678751822996
 20
13.17414242779864
 10
8.35724968299619
 20
13.17470683414333
 10
8.366620017599862
 20
13.17536932266989
 10
8.375758049387822
 20
13.17612765172686
 10
8.384632858153075
 20
13.17697925536875
 10
8.393214414352016
 20
13.1779212520384
 10
8.401473680714891
 20
13.17895045431728
 10
8.409382710498741
 20
13.18006337971064
 10
8.416914742050323
 20
13.18125626243126
 10
8.424044289359072
 20
13.18252506614159
 10
8.430747228293698
 20
13.18386549761153
 10
8.437000878230616
 20
13.18527302124526
 10
8.442784078797984
 20
13.18674287442837
 10
8.448077261475711
 20
13.18827008364295
 10
8.452862515809131
 20
13.18984948129644
 10
8.457123650012322
 20
13.19147572320713
 10
8.460846245755966
 20
13.19314330668717
 10
8.464017706954427
 20
13.19484658916193
 10
8.46662730238691
 20
13.19657980726266
 10
8.468666202008524
 20
13.19833709632796
 10
8.470127506828346
 20
13.20011251024789
 10
8.471006272253427
 20
13.20190004158373
 10
8.471299524819741
 20
13.20369364189527
 10
8.471006272253427
 20
13.20548724220682
 10
8.470127506828346
 20
13.20727477354266
 10
8.468666202008524
 20
13.20905018746259
 10
8.46662730238691
 20
13.21080747652789
 10
8.464017706954427
 20
13.21254069462862
 10
8.460846245755965
 20
13.21424397710338
 10
8.45712365001232
 20
13.21591156058342
 10
8.452862515809131
 20
13.21753780249411
 10
8.448077261475711
 20
13.2191172001476
 10
8.442784078797984
 20
13.22064440936217
 10
8.437000878230616
 20
13.22211426254528
 10
8.430747228293697
 20
13.22352178617902
 10
8.424044289359068
 20
13.22486221764895
 10
8.416914742050321
 20
13.22613102135929
 10
8.409382710498741
 20
13.2273239040799
 10
8.401473680714889
 20
13.22843682947327
 10
8.393214414352014
 20
13.22946603175214
 10
8.384632858153073
 20
13.2304080284218
 10
8.375758049387821
 20
13.23125963206369
 10
8.366620017599862
 20
13.23201796112066
 10
8.35724968299619
 20
13.23268044964722
 10
8.347678751822995
 20
13.2332448559919
 10
8.337939609081763
 20
13.2337092703823
 10
8.328065208948673
 20
13.23407212138712
 10
8.318088963268113
 20
13.23433218123343
 10
8.308044628497555
 20
13.23448856996101
 10
8.297966191486407
 20
13.23454075839992
 10
8.287887754475258
 20
13.23448856996101
 10
8.2778434197047
 20
13.23433218123343
 10
8.267867174024139
 20
13.23407212138712
 10
8.25799277389105
 20
13.2337092703823
 10
8.248253631149818
 20
13.2332448559919
 10
8.238682699976624
 20
13.23268044964722
 10
8.229312365372951
 20
13.23201796112066
 10
8.220174333584994
 20
13.23125963206369
 10
8.21129952481974
 20
13.2304080284218
 10
8.202717968620799
 20
13.22946603175214
 10
8.194458702257923
 20
13.22843682947327
 10
8.186549672474074
 20
13.2273239040799
 10
8.179017640922493
 20
13.22613102135929
 10
8.171888093613745
 20
13.22486221764895
 10
8.165185154679118
 20
13.22352178617902
 10
8.1589315047422
 20
13.22211426254528
 10
8.15314830417483
 20
13.22064440936217
 10
8.147855121497105
 20
13.2191172001476
 10
8.143069867163681
 20
13.21753780249411
 10
8.138808732960493
 20
13.21591156058342
 10
8.13508613721685
 20
13.21424397710338
 10
8.131914676018389
 20
13.21254069462862
 10
8.129305080585904
 20
13.21080747652789
 10
8.127266180964291
 20
13.20905018746259
 10
8.125804876144471
 20
13.20727477354266
 10
8.124926110719387
 20
13.20548724220682
 10
8.124632858153074
 20
13.20369364189527
 10
8.124926110719387
 20
13.20190004158373
 10
8.125804876144471
 20
13.20011251024789
 10
8.127266180964292
 20
13.19833709632796
 10
8.129305080585906
 20
13.19657980726266
 10
8.131914676018391
 20
13.19484658916192
 10
8.135086137216852
 20
13.19314330668717
 10
8.138808732960495
 20
13.19147572320713
 10
8.143069867163683
 20
13.18984948129644
 10
8.147855121497107
 20
13.18827008364295
 10
8.153148304174834
 20
13.18674287442837
 10
8.158931504742202
 20
13.18527302124526
 10
8.16518515467912
 20
13.18386549761153
 10
8.171888093613748
 20
13.18252506614159
 10
8.179017640922497
 20
13.18125626243126
 10
8.186549672474075
 20
13.18006337971064
 10
8.194458702257927
 20
13.17895045431728
 10
8.202717968620804
 20
13.1779212520384
 10
8.211299524819743
 20
13.17697925536875
 10
8.220174333584996
 20
13.17612765172686
 10
8.229312365372956
 20
13.17536932266989
 10
8.238682699976628
 20
13.17470683414333
 10
8.248253631149822
 20
13.17414242779864
 10
8.257992773891054
 20
13.17367801340824
 10
8.267867174024143
 20
13.17331516240342
 10
8.277843419704703
 20
13.17305510255712
 10
8.287887754475262
 20
13.17289871382954
 10
8.297966191486407
 20
13.17284652539062
  0
ARC
  5
CF
330
1F
100
AcDbEntity
  8
0
  6
CONTINUOUS
 62
     7
100
AcDbCircle
 10
10.59484201311837
 20
14.94383084619733
 30
0.0
 40
2.672609434191658
100
AcDbArc
 50
345.8493013616966
 51
359.8617396943824
  0
ARC
  5
D0
330
1F
100
AcDbEntity
  8
0
  6
CONTINUOUS
 62
     7
100
AcDbCircle
 10
10.59581652515946
 20
14.93106017020618
 30
0.0
 40
2.671633695451935
100
AcDbArc
 50
0.1355690100202112
 51
14.15317368079649
  0
SPLINE
  5
D1
330
1F
100
AcDbEntity
  8
0
  6
CONTINUOUS
 62
     7
100
AcDbSpline
210
0.0
220
0.0
230
1.0
 70
    31
 71
     3
 72
     8
 73
     4
 74
     0
 42
0.0000000001
 43
0.0000000001
 40
0.0
 40
0.0
 40
0.0
 40
0.0
 40
1.0
 40
1.0
 40
1.0
 40
1.0
 10
7.987966191486409
 20
14.93738158515768
 30
0.0
 41
1.0
 10
7.987966191486409
 20
14.93738158515768
 30
0.0
 41
1.0
 10
7.987966191486409
 20
14.93738158515768
 30
0.0
 41
1.0
 10
7.987966191486409
 20
14.93738158515768
 30
0.0
 41
1.0
  0
LINE
  5
D2
330
1F
100
AcDbEntity
  8
0
  6
CONTINUOUS
 62
     7
100
AcDbLine
 10
13.32129952481974
 20
12.60404825182435
 30
0.0
 11
13.32129952481974
 21
17.27071491849101
 31
0.0
  0
SPLINE
  5
D3
330
1F
100
AcDbEntity
  8
0
  6
CONTINUOUS
 62
     7
100
AcDbSpline
210
0.0
220
0.0
230
1.0
 70
    31
 71
     3
 72
     8
 73
     4
 74
     0
 42
0.0000000001
 43
0.0000000001
 40
0.0
 40
0.0
 40
0.0
 40
0.0
 40
1.0
 40
1.0
 40
1.0
 40
1.0
 10
7.987966191486409
 20
14.93738158515768
 30
0.0
 41
1.0
 10
7.987966191486409
 20
14.93738158515768
 30
0.0
 41
1.0
 10
7.987966191486409
 20
14.93738158515768
 30
0.0
 41
1.0
 10
7.987966191486409
 20
14.93738158515768
 30
0.0
 41
1.0
  0
ARC
  5
D4
330
1F
100
AcDbEntity
  8
0
  6
CONTINUOUS
 62
     7
100
AcDbCircle
 10
10.4570345008161
 20
14.94419789916867
 30
0.0
 40
1.894073677336423
100
AcDbArc
 50
346.8960448613942
 51
359.7938058733717
  0
ARC
  5
D7
330
1F
100
AcDbEntity
  8
0
  6
CONTINUOUS
 62
     7
100
AcDbCircle
 10
10.45596266675449
 20
14.93044311125239
 30
0.0
 40
1.89514571138713
100
AcDbArc
 50
0.2097707615751267
 51
13.10033468435578
  0
LWPOLYLINE
  5
D9
330
1F
100
AcDbEntity
  8
0
  6
CONTINUOUS
 62
     7
100
AcDbPolyline
 90
       20
 70
   128
 43
0.0
 10
13.18635414050757
 20
15.58431468885928
 10
13.18635404641914
 20
15.58431507763105
 10
13.16593765461751
 20
15.6637656348212
 10
13.14331266090845
 20
15.74263246533233
 10
13.11853838814972
 20
15.82083482478207
 10
13.09147132298335
 20
15.89885772612098
 10
13.06231704594345
 20
15.97614116204043
 10
13.03113526897941
 20
16.05261382077611
 10
13.00410523345994
 20
16.11464571715988
 10
12.97576285971451
 20
16.17610567844526
 10
12.94614012749065
 20
16.23695961564566
 10
12.91526901653593
 20
16.29717343977447
 10
12.88294129734333
 20
16.35714926074448
 10
12.84938503368229
 20
16.41646286560303
 10
12.81463272364924
 20
16.47508441119135
 10
12.7787168653406
 20
16.53298405435066
 10
12.74529847316971
 20
16.58464649748374
 10
12.71096691179929
 20
16.63570672401137
 10
12.6756978997016
 20
16.68621767366735
 10
12.63955550408225
 20
16.73610733462403
  0
LWPOLYLINE
  5
DA
330
1F
100
AcDbEntity
  8
0
  6
CONTINUOUS
 62
     7
100
AcDbPolyline
 90
       22
 70
   128
 43
0.0
 10
11.61747785172753
 20
16.64840401931448
 10
11.61747809790381
 20
16.6484037138532
 10
11.67943481173815
 20
16.56982845424061
 10
11.73971808635416
 20
16.48997572321931
 10
11.798366164997
 20
16.40886093738857
 10
11.84687135888481
 20
16.33899166944403
 10
11.89411925778729
 20
16.26810881101432
 10
11.93997793501106
 20
16.19618698046234
 10
11.98431546386271
 20
16.12320079615098
 10
12.02699991764883
 20
16.04912487644313
 10
12.05904394747268
 20
15.99057890061209
 10
12.08993215941219
 20
15.9312845889053
 10
12.11956840847395
 20
15.87125869489983
 10
12.14785654966455
 20
15.81051797217273
 10
12.17470043799056
 20
15.74907917430107
 10
12.20000392845856
 20
15.68695905486191
 10
12.22021701303127
 20
15.63366291913195
 10
12.23921599989983
 20
15.5798351324096
 10
12.25693666729916
 20
15.5255148782461
 10
12.27331479346421
 20
15.47074134019268
 10
12.28828615662991
 20
15.41555370180057
 10
12.3017865350312
 20
15.35999114662101
  0
LWPOLYLINE
  5
DB
330
1F
100
AcDbEntity
  8
0
  6
CONTINUOUS
 62
     7
100
AcDbPolyline
 90
       27
 70
   128
 43
0.0
 10
12.63955550408224
 20
16.73610733462403
 10
12.59104458486685
 20
16.73592432578873
 10
12.54255408200292
 20
16.73545880122351
 10
12.49416219643899
 20
16.73471133939774
 10
12.44594712912361
 20
16.73368251878079
 10
12.39798708100528
 20
16.73237291784205
 10
12.34891774788231
 20
16.73073069534728
 10
12.30014935362764
 20
16.72878693978218
 10
12.25177907341754
 20
16.72654098743518
 10
12.20390408242826
 20
16.72399217459473
 10
12.15662155583607
 20
16.72113983754925
 10
12.11279994781817
 20
16.71818104829184
 10
12.0695684830445
 20
16.71494480530259
 10
12.02703363965558
 20
16.71142976214785
 10
11.98530189579191
 20
16.70763457239396
 10
11.94342548822892
 20
16.70344720007612
 10
11.90252398965774
 20
16.69895008776994
 10
11.86275863855929
 20
16.69414327573452
 10
11.82429067341451
 20
16.689026804229
 10
11.79476787891853
 20
16.68474213678791
 10
11.76618191920037
 20
16.68025255646222
 10
11.73864240476391
 20
16.67556153343849
 10
11.71225894611306
 20
16.67067253790326
 10
11.68634096144044
 20
16.66541914652703
 10
11.66180984868145
 20
16.65994847011086
 10
11.63880801104188
 20
16.65427269794369
 10
11.61747785172753
 20
16.64840401931448
  0
LWPOLYLINE
  5
DC
330
1F
100
AcDbEntity
  8
0
  6
CONTINUOUS
 62
     7
100
AcDbPolyline
 90
       13
 70
   128
 43
0.0
 10
10.73519812072439
 20
16.22891866494189
 10
10.12472698091388
 20
16.22702546106558
 10
9.51423633230126
 20
16.22534938309401
 10
9.208963114094535
 20
16.22464679120543
 10
8.903678690591574
 20
16.22408962640964
 10
8.598386798098749
 20
16.22372353431085
 10
8.293091172922432
 20
16.2235941605133
 10
7.98466935075862
 20
16.22373415589781
 10
7.676251551684153
 20
16.22411414598248
 10
7.367841442143991
 20
16.22468686737385
 10
7.059442688583092
 20
16.22540505667845
 10
6.442609120422858
 20
16.22711032426239
 10
5.825794992621704
 20
16.2290306923131
  0
LWPOLYLINE
  5
DD
330
1F
100
AcDbEntity
  8
0
  6
CONTINUOUS
 62
     7
100
AcDbPolyline
 90
       25
 70
   128
 43
0.0
 10
4.445566254026886
 20
16.66015224078954
 10
4.523740421556849
 20
16.64427686644165
 10
4.60036656643328
 20
16.62814535248588
 10
4.675441190977281
 20
16.61175847094724
 10
4.748841749021402
 20
16.59514327018388
 10
4.820507545474376
 20
16.57831314669232
 10
4.890438580336204
 20
16.56126810047258
 10
4.954784656058771
 20
16.54500020521965
 10
5.017588564130106
 20
16.52854124804753
 10
5.07885030455021
 20
16.51189122895624
 10
5.13856987731908
 20
16.49505014794576
 10
5.196747282436719
 20
16.4780180050161
 10
5.258847223693875
 20
16.45909641597267
 10
5.318919428824152
 20
16.43999275373896
 10
5.37696389782755
 20
16.42070701831494
 10
5.432980630704068
 20
16.40123920970064
 10
5.486969627453708
 20
16.38158932789604
 10
5.538930888076469
 20
16.36175737290114
 10
5.588864412572351
 20
16.34174334471595
 10
5.632850744960977
 20
16.32323922537282
 10
5.675054673956036
 20
16.30461546827572
 10
5.715450978105908
 20
16.28588278417222
 10
5.754039657410594
 20
16.26704117306231
 10
5.790820711870091
 20
16.24809063494601
 10
5.825794141484403
 20
16.22903116982329
  0
LWPOLYLINE
  5
DE
330
1F
100
AcDbEntity
  8
0
  6
CONTINUOUS
 62
     7
100
AcDbPolyline
 90
       24
 70
   128
 43
0.0
 10
4.44555376907858
 20
16.66015025849105
 10
4.418239900133272
 20
16.665384913103
 10
4.389779678188808
 20
16.6704325453443
 10
4.360267292527974
 20
16.67528990589819
 10
4.329796932433556
 20
16.6799537454479
 10
4.298462787188341
 20
16.68442081467666
 10
4.256827309722044
 20
16.68990055173955
 10
4.213900998386643
 20
16.69506910809801
 10
4.16982969796226
 20
16.69992466894548
 10
4.124759253229015
 20
16.70446541947538
 10
4.080292066122359
 20
16.70856175647302
 10
4.03499824528793
 20
16.71237358187641
 10
3.988977389523334
 20
16.71589987332285
 10
3.94232909762618
 20
16.71913960844964
 10
3.89416073235723
 20
16.72215060312985
 10
3.845414961273305
 20
16.72486885120203
 10
3.796180590127093
 20
16.727292934962
 10
3.746546424671285
 20
16.72942143670558
 10
3.692415445941957
 20
16.73139287807423
 10
3.637905488685512
 20
16.73301916323681
 10
3.583121816594681
 20
16.73429823095307
 10
3.527472327817446
 20
16.73523787811578
 10
3.471650579067825
 20
16.73582015487263
 10
3.415765403268054
 20
16.73604312595145
  0
LWPOLYLINE
  5
DF
330
1F
100
AcDbEntity
  8
0
  6
CONTINUOUS
 62
     7
100
AcDbPolyline
 90
        4
 70
   128
 43
0.0
 10
5.81257375061619
 20
16.73535348092185
 10
4.893136637717965
 20
16.73545866660385
 10
3.973699524819738
 20
16.73573207676366
 10
3.415765403268054
 20
16.73604312595145
  0
LINE
  5
E0
330
1F
100
AcDbEntity
  8
0
  6
CONTINUOUS
 62
     7
100
AcDbLine
 10
5.812573750656923
 20
16.73535348091136
 30
0.0
 11
10.16335863231589
 21
16.73535348091136
 31
0.0
  0
LWPOLYLINE
  5
E1
330
1F
100
AcDbEntity
  8
0
  6
CONTINUOUS
 62
     7
100
AcDbPolyline
 90
        5
 70
   128
 43
0.0
 10
12.63955550408225
 20
16.73610733462403
 10
12.32089509182722
 20
16.73588604785773
 10
12.00223285815308
 20
16.73573207676366
 10
11.08279684552282
 20
16.73545866683132
 10
10.16335863235663
 20
16.73535348091136
  0
LWPOLYLINE
  5
E2
330
1F
100
AcDbEntity
  8
0
  6
CONTINUOUS
 62
     7
100
AcDbPolyline
 90
       23
 70
   128
 43
0.0
 10
10.73519832114516
 20
16.22891887496825
 10
10.75490118350934
 20
16.24856191435453
 10
10.77646176824727
 20
16.26814348077236
 10
10.79988007535897
 20
16.28766357422176
 10
10.82515610484441
 20
16.30712219470273
 10
10.8522885031911
 20
16.32651839428424
 10
10.88123695391086
 20
16.34582393534517
 10
10.91198269273418
 20
16.36502567506971
 10
10.94787887319945
 20
16.38602769822315
 10
10.98594977227004
 20
16.40690412175954
 10
11.02619538994595
 20
16.42765494567889
 10
11.06861572622717
 20
16.44828016998119
 10
11.11321078111371
 20
16.46877979466645
 10
11.15298715049876
 20
16.4861736887106
 10
11.1942702141459
 20
16.50344011138836
 10
11.23705997205509
 20
16.52057906269972
 10
11.28135642422635
 20
16.5375905426447
 10
11.32715957065967
 20
16.55447455122327
 10
11.37446941135507
 20
16.57123108843546
 10
11.43216173352001
 20
16.59081621656529
 10
11.49194597118815
 20
16.61022398665722
 10
11.55373427972259
 20
16.62942636843907
 10
11.61746904068129
 20
16.64840497636195
  0
LWPOLYLINE
  5
E3
330
1F
100
AcDbEntity
  8
0
  6
CONTINUOUS
 62
     7
100
AcDbPolyline
 90
       28
 70
   128
 43
0.0
 10
3.415765403268054
 20
16.73604312595145
 10
3.376387335405814
 20
16.67314854378527
 10
3.338479669383833
 20
16.60930845741398
 10
3.303093647119199
 20
16.54646381113197
 10
3.269122816797134
 20
16.48282231230093
 10
3.236583874185355
 20
16.41843645987169
 10
3.205493515051582
 20
16.35335875279508
 10
3.175622578142666
 20
16.28707719344642
 10
3.147227264095984
 20
16.22013079135024
 10
3.120320529879367
 20
16.15257206683162
 10
3.094915332460645
 20
16.08445354021563
 10
3.071337298378755
 20
16.01676573083904
 10
3.049214313484055
 20
15.94856248104023
 10
3.02855835247028
 20
15.87989193411625
 10
3.009381390031168
 20
15.81080223336415
 10
2.991695400860452
 20
15.74134152208095
 10
2.975320471377268
 20
15.67069939923652
 10
2.960470072337471
 20
15.59969527466845
 10
2.947152060054034
 20
15.52837912642441
 10
2.935374290839932
 20
15.45680093255209
 10
2.925144621008142
 20
15.38501067109917
 10
2.916957095963427
 20
15.31748194031072
 10
2.910135914994117
 20
15.24979452445642
 10
2.904687491453948
 20
15.18198979018483
 10
2.900603977145252
 20
15.1138351056765
 10
2.897911924715516
 20
15.04560416778806
 10
2.896616155410695
 20
14.97733959669026
 10
2.896616151918585
 20
14.97733919670551
  0
LWPOLYLINE
  5
E4
330
1F
100
AcDbEntity
  8
0
  6
CONTINUOUS
 62
     7
100
AcDbPolyline
 90
       29
 70
   128
 43
0.0
 10
3.794793205067165
 20
14.96623617354623
 10
3.796753564564665
 20
15.0401933357623
 10
3.800906878764194
 20
15.11409207838926
 10
3.807240795276576
 20
15.18783561775418
 10
3.81574296171263
 20
15.26132717018414
 10
3.825018521805295
 20
15.32578757614679
 10
3.83596301122853
 20
15.39000669758281
 10
3.848560460371261
 20
15.45392071571838
 10
3.862794899622415
 20
15.51746581177965
 10
3.878836580745654
 20
15.5813011767368
 10
3.896519821563154
 20
15.64472057464035
 10
3.915812532692196
 20
15.70766524575057
 10
3.936682624750061
 20
15.77007643032769
 10
3.961008767898118
 20
15.83694538335735
 10
3.987134333041531
 20
15.90317351853503
 10
4.014999292788492
 20
15.9687053399399
 10
4.044543619747201
 20
16.03348535165112
 10
4.075707286525849
 20
16.09745805774785
 10
4.108430265732634
 20
16.16056796230926
 10
4.142746806875279
 20
16.22289890301249
 10
4.178606327343097
 20
16.28437711833952
 10
4.215954003556302
 20
16.34495858667616
 10
4.254735011935104
 20
16.40459928640821
 10
4.294894528899716
 20
16.46325519592148
 10
4.336377730870347
 20
16.52088229360176
 10
4.371864287822713
 20
16.56803937475281
 10
4.40824952844719
 20
16.61447949069941
 10
4.445553514192954
 20
16.66014995300613
 10
4.44555376907858
 20
16.66015025849105
  0
LWPOLYLINE
  5
E6
330
1F
100
AcDbEntity
  8
0
  6
CONTINUOUS
 62
     7
100
AcDbPolyline
 90
       22
 70
   128
 43
0.0
 10
12.30178710413647
 20
14.51477627917095
 10
12.28575073340642
 20
14.44945591058109
 10
12.26769013529986
 20
14.38465568182737
 10
12.24770973804996
 20
14.32043504678618
 10
12.22591396988993
 20
14.25685345933388
 10
12.20240725905292
 20
14.19397037334685
 10
12.17729403377213
 20
14.13184524270146
 10
12.15035692546991
 20
14.06979435669145
 10
12.12193682076071
 20
14.00844722303701
 10
12.09212927968373
 20
13.94781486224592
 10
12.06102986227821
 20
13.88790829482597
 10
12.02873412858337
 20
13.82873854128493
 10
11.99533763863841
 20
13.7703166221306
 10
11.9509906162422
 20
13.69637988475778
 10
11.90507223424829
 20
13.62352525964077
 10
11.85769884527398
 20
13.55172424511368
 10
11.80898680193657
 20
13.48094833951067
 10
11.75905245685336
 20
13.41116904116586
 10
11.71285237465664
 20
13.34880842563498
 10
11.66567462582647
 20
13.2871993360632
 10
11.61747788996368
 20
13.22635951708384
 10
11.61747764377609
 20
13.22635921162698
  0
LWPOLYLINE
  5
E7
330
1F
100
AcDbEntity
  8
0
  6
CONTINUOUS
 62
     7
100
AcDbPolyline
 90
       20
 70
   128
 43
0.0
 10
12.63955533802996
 20
13.13865583583363
 10
12.68729642788236
 20
13.20495002623393
 10
12.73348933260467
 20
13.27233210179251
 10
12.77046602347118
 20
13.32883572979025
 10
12.80633162087255
 20
13.38606669540036
 10
12.84105373262356
 20
13.4439978986029
 10
12.87459996653903
 20
13.50260223937791
 10
12.90716040723218
 20
13.56226674464664
 10
12.93849311112968
 20
13.62260132454714
 10
12.96856599791418
 20
13.68357288911595
 10
12.99734698726827
 20
13.74514834838963
 10
13.02637065141757
 20
13.81095033649399
 10
13.05390181688006
 20
13.8774108583746
 10
13.07990141175433
 20
13.94448440805517
 10
13.10433036413901
 20
14.01212547955944
 10
13.12735694262763
 20
14.08093104527196
 10
13.14873025871601
 20
14.15029034983229
 10
13.16840950698269
 20
14.22014817501772
 10
13.18635388200625
 20
14.29044930260556
 10
13.18635397609596
 20
14.29044969137701
  0
SPLINE
  5
E8
330
1F
100
AcDbEntity
  8
0
  6
CONTINUOUS
 62
     7
100
AcDbSpline
210
0.0
220
0.0
230
1.0
 70
    31
 71
     3
 72
     8
 73
     4
 74
     0
 42
0.0000000001
 43
0.0000000001
 40
0.0
 40
0.0
 40
0.0
 40
0.0
 40
1.0
 40
1.0
 40
1.0
 40
1.0
 10
7.987966191486409
 20
14.93738158515768
 30
0.0
 41
1.0
 10
7.987966191486409
 20
14.93738158515768
 30
0.0
 41
1.0
 10
7.987966191486409
 20
14.93738158515768
 30
0.0
 41
1.0
 10
7.987966191486409
 20
14.93738158515768
 30
0.0
 41
1.0
  0
SPLINE
  5
E9
330
1F
100
AcDbEntity
  8
0
  6
CONTINUOUS
 62
     7
100
AcDbSpline
210
0.0
220
0.0
230
1.0
 70
    31
 71
     3
 72
     8
 73
     4
 74
     0
 42
0.0000000001
 43
0.0000000001
 40
0.0
 40
0.0
 40
0.0
 40
0.0
 40
1.0
 40
1.0
 40
1.0
 40
1.0
 10
7.987966191486409
 20
14.93738158515768
 30
0.0
 41
1.0
 10
7.987966191486409
 20
14.93738158515768
 30
0.0
 41
1.0
 10
7.987966191486409
 20
14.93738158515768
 30
0.0
 41
1.0
 10
7.987966191486409
 20
14.93738158515768
 30
0.0
 41
1.0
  0
LINE
  5
EA
330
1F
100
AcDbEntity
  8
0
  6
CONTINUOUS
 62
     7
100
AcDbLine
 10
2.896616151918571
 20
14.97733919670561
 30
0.0
 11
2.896372040531003
 21
14.93786768452861
 31
0.0
  0
LINE
  5
EB
330
1F
100
AcDbEntity
  8
0
  6
CONTINUOUS
 62
     7
100
AcDbLine
 10
2.896372040531002
 20
14.93786768452861
 30
0.0
 11
2.896616155135332
 21
14.8974239879048
 31
0.0
  0
SPLINE
  5
EC
330
1F
100
AcDbEntity
  8
0
  6
CONTINUOUS
 62
     7
100
AcDbSpline
210
0.0
220
0.0
230
1.0
 70
    31
 71
     3
 72
     8
 73
     4
 74
     0
 42
0.0000000001
 43
0.0000000001
 40
0.0
 40
0.0
 40
0.0
 40
0.0
 40
1.0
 40
1.0
 40
1.0
 40
1.0
 10
7.987966191486409
 20
14.93738158515768
 30
0.0
 41
1.0
 10
7.987966191486409
 20
14.93738158515768
 30
0.0
 41
1.0
 10
7.987966191486409
 20
14.93738158515768
 30
0.0
 41
1.0
 10
7.987966191486409
 20
14.93738158515768
 30
0.0
 41
1.0
  0
LINE
  5
ED
330
1F
100
AcDbEntity
  8
0
  6
CONTINUOUS
 62
     7
100
AcDbLine
 10
2.654632858153074
 20
17.27071491849101
 30
0.0
 11
2.654632858153075
 21
12.60404825182435
 31
0.0
  0
SPLINE
  5
EE
330
1F
100
AcDbEntity
  8
0
  6
CONTINUOUS
 62
     7
100
AcDbSpline
210
0.0
220
0.0
230
1.0
 70
    31
 71
     3
 72
     8
 73
     4
 74
     0
 42
0.0000000001
 43
0.0000000001
 40
0.0
 40
0.0
 40
0.0
 40
0.0
 40
1.0
 40
1.0
 40
1.0
 40
1.0
 10
7.987966191486409
 20
14.93738158515768
 30
0.0
 41
1.0
 10
7.987966191486409
 20
14.93738158515768
 30
0.0
 41
1.0
 10
7.987966191486409
 20
14.93738158515768
 30
0.0
 41
1.0
 10
7.987966191486409
 20
14.93738158515768
 30
0.0
 41
1.0
  0
LINE
  5
EF
330
1F
100
AcDbEntity
  8
0
  6
CONTINUOUS
 62
     7
100
AcDbLine
 10
13.32129952481974
 20
17.27071491849101
 30
0.0
 11
2.654632858153074
 21
17.27071491849101
 31
0.0
  0
SPLINE
  5
F0
330
1F
100
AcDbEntity
  8
0
  6
CONTINUOUS
 62
     7
100
AcDbSpline
210
0.0
220
0.0
230
1.0
 70
    31
 71
     3
 72
     8
 73
     4
 74
     0
 42
0.0000000001
 43
0.0000000001
 40
0.0
 40
0.0
 40
0.0
 40
0.0
 40
1.0
 40
1.0
 40
1.0
 40
1.0
 10
7.987966191486409
 20
14.93738158515768
 30
0.0
 41
1.0
 10
7.987966191486409
 20
14.93738158515768
 30
0.0
 41
1.0
 10
7.987966191486409
 20
14.93738158515768
 30
0.0
 41
1.0
 10
7.987966191486409
 20
14.93738158515768
 30
0.0
 41
1.0
  0
SPLINE
  5
F1
330
1F
100
AcDbEntity
  8
0
  6
CONTINUOUS
 62
     7
100
AcDbSpline
210
0.0
220
0.0
230
1.0
 70
    31
 71
     3
 72
     8
 73
     4
 74
     0
 42
0.0000000001
 43
0.0000000001
 40
0.0
 40
0.0
 40
0.0
 40
0.0
 40
1.0
 40
1.0
 40
1.0
 40
1.0
 10
7.987966191486409
 20
14.93738158515768
 30
0.0
 41
1.0
 10
7.987966191486409
 20
14.93738158515768
 30
0.0
 41
1.0
 10
7.987966191486409
 20
14.93738158515768
 30
0.0
 41
1.0
 10
7.987966191486409
 20
14.93738158515768
 30
0.0
 41
1.0
  0
LINE
  5
F2
330
1F
100
AcDbEntity
  8
0
  6
CONTINUOUS
 62
     7
100
AcDbLine
 10
2.654632858153075
 20
12.60404825182435
 30
0.0
 11
13.32129952481974
 21
12.60404825182435
 31
0.0
  0
LINE
  5
F4
330
1F
100
AcDbEntity
  8
0
  6
CONTINUOUS
 62
     7
100
AcDbLine
 10
3.794793209467549
 20
14.90852719535063
 30
0.0
 11
3.794625495492935
 21
14.93773254563326
 31
0.0
  0
LINE
  5
F5
330
1F
100
AcDbEntity
  8
0
  6
CONTINUOUS
 62
     7
100
AcDbLine
 10
3.794625495492935
 20
14.93773254563326
 30
0.0
 11
3.794793205067165
 21
14.96623617354623
 31
0.0
  0
LWPOLYLINE
  5
F6
330
1F
100
AcDbEntity
  8
0
  6
CONTINUOUS
 62
     7
100
AcDbPolyline
 90
       45
 70
   128
 43
0.0
 10
8.462243411446118
 20
13.1938532721512
 10
8.460846245755965
 20
13.19456323761399
 10
8.45712365001232
 20
13.19623082109403
 10
8.452862515809131
 20
13.19785706300472
 10
8.448077261475711
 20
13.19943646065821
 10
8.442784078797984
 20
13.20096366987278
 10
8.437000878230616
 20
13.20243352305589
 10
8.430747228293697
 20
13.20384104668963
 10
8.424044289359068
 20
13.20518147815956
 10
8.416914742050321
 20
13.2064502818699
 10
8.409382710498741
 20
13.20764316459051
 10
8.401473680714889
 20
13.20875608998388
 10
8.393214414352014
 20
13.20978529226275
 10
8.384632858153073
 20
13.21072728893241
 10
8.375758049387821
 20
13.2115788925743
 10
8.366620017599862
 20
13.21233722163126
 10
8.35724968299619
 20
13.21299971015783
 10
8.347678751822995
 20
13.21356411650251
 10
8.337939609081763
 20
13.21402853089291
 10
8.328065208948673
 20
13.21439138189773
 10
8.318088963268113
 20
13.21465144174403
 10
8.308044628497555
 20
13.21480783047162
 10
8.297966191486407
 20
13.21486001891053
 10
8.287887754475258
 20
13.21480783047162
 10
8.2778434197047
 20
13.21465144174403
 10
8.267867174024139
 20
13.21439138189773
 10
8.25799277389105
 20
13.21402853089291
 10
8.248253631149818
 20
13.21356411650251
 10
8.238682699976624
 20
13.21299971015783
 10
8.229312365372951
 20
13.21233722163126
 10
8.220174333584994
 20
13.2115788925743
 10
8.21129952481974
 20
13.21072728893241
 10
8.202717968620799
 20
13.20978529226275
 10
8.194458702257923
 20
13.20875608998388
 10
8.186549672474074
 20
13.20764316459051
 10
8.179017640922493
 20
13.2064502818699
 10
8.171888093613745
 20
13.20518147815956
 10
8.165185154679118
 20
13.20384104668963
 10
8.1589315047422
 20
13.20243352305589
 10
8.15314830417483
 20
13.20096366987278
 10
8.147855121497105
 20
13.19943646065821
 10
8.143069867163681
 20
13.19785706300472
 10
8.138808732960493
 20
13.19623082109403
 10
8.13508613721685
 20
13.19456323761399
 10
8.133688971526567
 20
13.19385327215113
  0
LWPOLYLINE
  5
F7
330
1F
100
AcDbEntity
  8
0
  6
CONTINUOUS
 62
     7
100
AcDbPolyline
 90
       41
 70
   128
 43
0.0
 10
4.647178843568798
 20
14.93773294158778
 10
4.648324762731556
 20
14.99209350563361
 10
4.651724246029401
 20
15.04640655825649
 10
4.65736358542225
 20
15.10053304119231
 10
4.665229072870022
 20
15.1543338961769
 10
4.67337033233101
 20
15.1983329278357
 10
4.683011794551422
 20
15.24206769143005
 10
4.694136681630602
 20
15.28546202938974
 10
4.706728215667888
 20
15.32843978414453
 10
4.720769618762625
 20
15.3709247981242
 10
4.739788623737307
 20
15.42186671881574
 10
4.760936342185318
 20
15.47201393738016
 10
4.784158226196983
 20
15.52123449847588
 10
4.809399727862627
 20
15.56939644676133
 10
4.831688003085838
 20
15.60823000917879
 10
4.855318374670015
 20
15.64630843877067
 10
4.880247598709811
 20
15.68356520921967
 10
4.906432431299869
 20
15.71993379420848
 10
4.933829628534838
 20
15.7553476674198
 10
4.968533983326314
 20
15.79680847023513
 10
5.004987268208078
 20
15.8368050401779
 10
5.043088832595308
 20
15.87523456708005
 10
5.082738025903175
 20
15.91199424077349
 10
5.116535626136499
 20
15.94099897673554
 10
5.151343971497152
 20
15.96884669762649
 10
5.187102206444485
 20
15.99548501821476
 10
5.223749475437846
 20
16.02086155326875
 10
5.26122492293658
 20
16.04492391755688
 10
5.307234903485142
 20
16.07201438069533
 10
5.354386847885177
 20
16.0971651742979
 10
5.402555857585433
 20
16.12030680739876
 10
5.451617034034659
 20
16.14136978903209
 10
5.492691661144687
 20
16.15714537721498
 10
5.534331393869824
 20
16.1714874294139
 10
5.576459664375528
 20
16.18436843334021
 10
5.618999904827251
 20
16.19576087670524
 10
5.661875547390447
 20
16.20563724722038
 10
5.702442954765523
 20
16.21352491293001
 10
5.74325040708598
 20
16.22005645195087
 10
5.784438374042395
 20
16.22523918877648
 10
5.825777372274143
 20
16.22903074889571
  0
SPLINE
  5
F8
330
1F
100
AcDbEntity
  8
0
  6
CONTINUOUS
 62
     7
100
AcDbSpline
210
0.0
220
0.0
230
1.0
 70
    31
 71
     3
 72
     8
 73
     4
 74
     0
 42
0.0000000001
 43
0.0000000001
 40
0.1886004897282995
 40
0.1886004897282995
 40
0.1886004897282995
 40
0.1886004897282995
 40
0.9047635037155306
 40
0.9047635037155306
 40
0.9047635037155306
 40
0.9047635037155306
 10
7.987966191486409
 20
14.93738158515768
 30
0.0
 41
1.0
 10
7.987966191486409
 20
14.93738158515768
 30
0.0
 41
1.0
 10
7.987966191486409
 20
14.93738158515768
 30
0.0
 41
1.0
 10
7.987966191486409
 20
14.93738158515768
 30
0.0
 41
1.0
  0
LWPOLYLINE
  5
F9
330
1F
100
AcDbEntity
  8
0
  6
CONTINUOUS
 62
     7
100
AcDbPolyline
 90
       38
 70
   128
 43
0.0
 10
5.825777372274142
 20
13.64573242141967
 10
5.773915848894692
 20
13.65071851158026
 10
5.722265195002251
 20
13.65789885129784
 10
5.670960595103409
 20
13.66724203869502
 10
5.62013723370475
 20
13.67871667189438
 10
5.568364840070576
 20
13.69274148639994
 10
5.517192692098058
 20
13.70898304160752
 10
5.466757931402523
 20
13.72738927270743
 10
5.417197699599293
 20
13.74790811488999
 10
5.369948043437668
 20
13.76984337096943
 10
5.323603671032896
 20
13.79372909173222
 10
5.278277883558645
 20
13.81949691664039
 10
5.234083982188583
 20
13.84707848515596
 10
5.189866591012051
 20
13.87729438632576
 10
5.146909215989644
 20
13.90935446916586
 10
5.105317303471972
 20
13.94316838293804
 10
5.065196299809642
 20
13.97864577690412
 10
5.026931502478341
 20
14.0154252260006
 10
4.990190054890667
 20
14.05378987292765
 10
4.955061755786322
 20
14.09363749398064
 10
4.921636403905009
 20
14.13486586545494
 10
4.889060986367774
 20
14.17866050917034
 10
4.858320353882819
 20
14.22382027876616
 10
4.829493320613893
 20
14.27022513332815
 10
4.802658700724744
 20
14.31775503194206
 10
4.778220388586075
 20
14.36561310230153
 10
4.755765098124393
 20
14.41448390364167
 10
4.735343793712111
 20
14.46423946855018
 10
4.717007439721642
 20
14.51475182961475
 10
4.70349628456169
 20
14.55684705349421
 10
4.691403474541674
 20
14.59941057267263
 10
4.680744961155398
 20
14.64236895196389
 10
4.671536695896665
 20
14.68564875618187
 10
4.663794630259276
 20
14.72917655014045
 10
4.656546543711928
 20
14.78086047772188
 10
4.651354515639892
 20
14.83279127620991
 10
4.648216894818823
 20
14.88522034415172
 10
4.647178843568798
 20
14.93773294158778
  0
SPLINE
  5
FA
330
1F
100
AcDbEntity
  8
0
  6
CONTINUOUS
 62
     7
100
AcDbSpline
210
0.0
220
0.0
230
1.0
 70
    31
 71
     3
 72
     8
 73
     4
 74
     0
 42
0.0000000001
 43
0.0000000001
 40
0.2361698664926306
 40
0.2361698664926306
 40
0.2361698664926306
 40
0.2361698664926306
 40
0.8931988334243653
 40
0.8931988334243653
 40
0.8931988334243653
 40
0.8931988334243653
 10
7.987966191486409
 20
14.93738158515768
 30
0.0
 41
1.0
 10
7.987966191486409
 20
14.93738158515768
 30
0.0
 41
1.0
 10
7.987966191486409
 20
14.93738158515768
 30
0.0
 41
1.0
 10
7.987966191486409
 20
14.93738158515768
 30
0.0
 41
1.0
  0
LWPOLYLINE
  5
FB
330
1F
100
AcDbEntity
  8
0
  6
CONTINUOUS
 62
     7
100
AcDbPolyline
 90
       43
 70
   128
 43
0.0
 10
10.7352110533963
 20
16.22891870634496
 10
10.77879230081178
 20
16.22483043001617
 10
10.82224284587206
 20
16.21921892630004
 10
10.86548855264132
 20
16.21211120027479
 10
10.90845528518365
 20
16.20353425701865
 10
10.95106890756319
 20
16.19351510160983
 10
10.99458681936713
 20
16.18169881488404
 10
11.03771068040219
 20
16.16838373152904
 10
11.08037043992422
 20
16.15360571609711
 10
11.12249604718908
 20
16.13740063314052
 10
11.1640174514526
 20
16.11980434721153
 10
11.21354911374898
 20
16.09661348902386
 10
11.26214632858038
 20
16.07142648870405
 10
11.30969678819482
 20
16.0443133336305
 10
11.35608818484034
 20
16.01534401118163
 10
11.40247845247075
 20
15.98369119719083
 10
11.44757337291527
 20
15.95013931253861
 10
11.49126161265192
 20
15.91477477928319
 10
11.53343183815872
 20
15.87768401948278
 10
11.56642904901722
 20
15.84641152253342
 10
11.59839568955327
 20
15.81403247730341
 10
11.62927619461608
 20
15.7805990353583
 10
11.65901499905484
 20
15.74616334826365
 10
11.68755653771877
 20
15.71077756758504
 10
11.7156809329085
 20
15.67334614788615
 10
11.74250488944353
 20
15.63491836682177
 10
11.76797211140039
 20
15.59556183101525
 10
11.79202630285564
 20
15.55534414708997
 10
11.81461116788583
 20
15.51433292166928
 10
11.83478475037485
 20
15.47443932391719
 10
11.85358698486401
 20
15.4338359668448
 10
11.87097470588104
 20
15.39259328327286
 10
11.88690474795363
 20
15.35078170602213
 10
11.90133394560947
 20
15.30847166791335
 10
11.91464243942123
 20
15.26423986271132
 10
11.92631013272453
 20
15.21949615696106
 10
11.9363016112349
 20
15.17433309911291
 10
11.94458146066784
 20
15.12884323761723
 10
11.95111426673885
 20
15.08311912092438
 10
11.95502583394561
 20
15.04687307679802
 10
11.95783323923041
 20
15.01052488092675
 10
11.9595313024455
 20
14.97397070485887
 10
11.96009927524219
 20
14.93738158515769
  0
LWPOLYLINE
  5
FC
330
1F
100
AcDbEntity
  8
0
  6
CONTINUOUS
 62
     7
100
AcDbPolyline
 90
       39
 70
   128
 43
0.0
 10
11.96009927524219
 20
14.93738158515769
 10
11.95897504634798
 20
14.88596505747745
 10
11.95562184206828
 20
14.83459769657295
 10
11.95006888600757
 20
14.7834200764448
 10
11.94234540177029
 20
14.73257277109358
 10
11.93213604595687
 20
14.68057329970386
 10
11.91968039166253
 20
14.6290155194622
 10
11.90503714874858
 20
14.5780341615202
 10
11.88826502707631
 20
14.52776395702947
 10
11.86999389699672
 20
14.47972449655281
 10
11.84978900822428
 20
14.43242109701722
 10
11.82771675724606
 20
14.38595840006287
 10
11.80384354054908
 20
14.34044104732991
 10
11.77750806286217
 20
14.29475377557184
 10
11.74934727545558
 20
14.25011925360642
 10
11.71944167190935
 20
14.2066334369974
 10
11.68787174580354
 20
14.16439228130857
 10
11.65362784276441
 20
14.12218953662634
 10
11.61769161239695
 20
14.08136050888046
 10
11.58015758441316
 20
14.04199469625433
 10
11.54112028852506
 20
14.00418159693136
 10
11.49951819435135
 20
13.96701273717557
 10
11.45640440079549
 20
13.9315362223375
 10
11.41188773287052
 20
13.89783722401773
 10
11.3660770155895
 20
13.86600091381683
 10
11.32783304508474
 20
13.84147077942187
 10
11.28876337633887
 20
13.81820449258802
 10
11.24893215097778
 20
13.79624240083008
 10
11.20840351062736
 20
13.77562485166284
 10
11.16724159691348
 20
13.75639219260109
 10
11.12420208298207
 20
13.73805129282899
 10
11.08050845730371
 20
13.7212069914011
 10
11.03623919559026
 20
13.70589873606222
 10
10.99147277355363
 20
13.69216597455719
 10
10.94628766690568
 20
13.68004815463084
 10
10.89428481040175
 20
13.66822888397028
 10
10.84183820511461
 20
13.65857075449586
 10
10.78865998342288
 20
13.65107022808861
 10
10.7352110533963
 20
13.64584446397042
  0
CIRCLE
  5
FD
330
1F
100
AcDbEntity
  8
0
  6
CONTINUOUS
 62
     7
100
AcDbCircle
 10
8.297966191486407
 20
14.93738158515769
 30
0.0
 40
0.4111434996699366
  0
CIRCLE
  5
FE
330
1F
100
AcDbEntity
  8
0
  6
CONTINUOUS
 62
     7
100
AcDbCircle
 10
8.297966191486407
 20
14.93738158515769
 30
0.0
 40
0.3349887506559384
  0
CIRCLE
  5
FF
330
1F
100
AcDbEntity
  8
0
  6
CONTINUOUS
 62
     7
100
AcDbCircle
 10
8.297966191486407
 20
14.93738158515769
 30
0.0
 40
0.1733333333333338
  0
ENDSEC
  0
SECTION
  2
OBJECTS
  0
DICTIONARY
  5
C
330
0
100
AcDbDictionary
  3
ACAD_GROUP
350
D
  3
ACAD_LAYOUT
350
1A
  3
ACAD_MLINESTYLE
350
17
  3
ACAD_PLOTSETTINGS
350
19
  3
ACAD_PLOTSTYLENAME
350
E
  3
ACDBHEADERROUNDTRIPXREC
350
148
  3
ACDBVARIABLEDICTIONARY
350
142
  0
DICTIONARY
  5
108
330
1F
100
AcDbDictionary
280
     1
  3
ACAD_LAYOUTSELFREF
360
16A
  0
DICTIONARY
  5
10A
330
1B
100
AcDbDictionary
280
     1
  3
ACAD_LAYOUTSELFREF
360
169
  0
DICTIONARY
  5
D
102
{ACAD_REACTORS
330
C
102
}
330
C
100
AcDbDictionary
  0
DICTIONARY
  5
1A
102
{ACAD_REACTORS
330
C
102
}
330
C
100
AcDbDictionary
  0
DICTIONARY
  5
17
102
{ACAD_REACTORS
330
C
102
}
330
C
100
AcDbDictionary
  3
STANDARD
350
18
  0
DICTIONARY
  5
19
102
{ACAD_REACTORS
330
C
102
}
330
C
100
AcDbDictionary
  0
ACDBDICTIONARYWDFLT
  5
E
102
{ACAD_REACTORS
330
C
102
}
330
C
100
AcDbDictionary
281
     1
  3
Normal
350
F
100
AcDbDictionaryWithDefault
340
F
  0
DICTIONARY
  5
148
102
{ACAD_REACTORS
330
C
102
}
330
C
100
AcDbDictionary
  3
CEPSNTYPE
350
152
  3
DIMSTYLEDATA
350
156
  3
FINGERPRINTGUID
350
153
  3
HYPERLINKBASE
350
14B
  3
INSUNITS
350
151
  3
LAYOUTDICT
350
14D
  3
LWETCUNION
350
150
  3
PLOTSETDICT
350
14E
  3
PLOTSTYLNAMDICT
350
14F
  3
PSVPSCALE
350
155
  3
PUCSBASE
350
159
  3
PUCSORGBACK
350
15F
  3
PUCSORGBOTTOM
350
15B
  3
PUCSORGFRONT
350
15E
  3
PUCSORGLEFT
350
15C
  3
PUCSORGRIGHT
350
15D
  3
PUCSORGTOP
350
15A
  3
PUCSORTHOREF
350
157
  3
PUCSORTHOVIEW
350
158
  3
STYLESHEET
350
14C
  3
TSTACKALIGN
350
149
  3
TSTACKSIZE
350
14A
  3
UCSBASE
350
162
  3
UCSORGBACK
350
168
  3
UCSORGBOTTOM
350
164
  3
UCSORGFRONT
350
167
  3
UCSORGLEFT
350
165
  3
UCSORGRIGHT
350
166
  3
UCSORGTOP
350
163
  3
UCSORTHOREF
350
160
  3
UCSORTHOVIEW
350
161
  3
VERSIONGUID
350
154
  0
DICTIONARY
  5
142
102
{ACAD_REACTORS
330
C
102
}
330
C
100
AcDbDictionary
  3
DIMASSOC
350
143
  0
XRECORD
  5
16A
102
{ACAD_REACTORS
330
108
102
}
330
108
100
AcDbXrecord
340
1F
  0
XRECORD
  5
169
102
{ACAD_REACTORS
330
10A
102
}
330
10A
100
AcDbXrecord
340
1B
  0
MLINESTYLE
  5
18
102
{ACAD_REACTORS
330
17
102
}
330
17
100
AcDbMlineStyle
  2
STANDARD
 70
     0
  3

 62
   256
 51
90.0
 52
90.0
 71
     2
 49
0.5
 62
   256
  6
BYLAYER
 49
-0.5
 62
   256
  6
BYLAYER
  0
ACDBPLACEHOLDER
  5
F
102
{ACAD_REACTORS
330
E
102
}
330
E
100
AcDbPlaceHolder
280
     0
  0
XRECORD
  5
152
102
{ACAD_REACTORS
330
148
102
}
330
148
100
AcDbXrecord
 90
        0
  0
XRECORD
  5
156
102
{ACAD_REACTORS
330
148
102
}
330
148
100
AcDbXrecord
1000
DSTYLE
1002
{
1070
   278
 70
    44
1002
}
  0
XRECORD
  5
153
102
{ACAD_REACTORS
330
148
102
}
330
148
100
AcDbXrecord
  1
{35526A86-E715-48A5-B0C2-8418089172B7}
  0
XRECORD
  5
14B
102
{ACAD_REACTORS
330
148
102
}
330
148
100
AcDbXrecord
  1

  0
XRECORD
  5
151
102
{ACAD_REACTORS
330
148
102
}
330
148
100
AcDbXrecord
 90
        4
  0
XRECORD
  5
14D
102
{ACAD_REACTORS
330
148
102
}
330
148
100
AcDbXrecord
340
1A
  0
XRECORD
  5
150
102
{ACAD_REACTORS
330
148
102
}
330
148
100
AcDbXrecord
 90
    10781
  0
XRECORD
  5
14E
102
{ACAD_REACTORS
330
148
102
}
330
148
100
AcDbXrecord
340
19
  0
XRECORD
  5
14F
102
{ACAD_REACTORS
330
148
102
}
330
148
100
AcDbXrecord
340
E
  0
XRECORD
  5
155
102
{ACAD_REACTORS
330
148
102
}
330
148
100
AcDbXrecord
 40
0.0
  0
XRECORD
  5
159
102
{ACAD_REACTORS
330
148
102
}
330
148
100
AcDbXrecord
340
0
  0
XRECORD
  5
15F
102
{ACAD_REACTORS
330
148
102
}
330
148
100
AcDbXrecord
 10
0.0
 20
0.0
 30
0.0
  0
XRECORD
  5
15B
102
{ACAD_REACTORS
330
148
102
}
330
148
100
AcDbXrecord
 10
0.0
 20
0.0
 30
0.0
  0
XRECORD
  5
15E
102
{ACAD_REACTORS
330
148
102
}
330
148
100
AcDbXrecord
 10
0.0
 20
0.0
 30
0.0
  0
XRECORD
  5
15C
102
{ACAD_REACTORS
330
148
102
}
330
148
100
AcDbXrecord
 10
0.0
 20
0.0
 30
0.0
  0
XRECORD
  5
15D
102
{ACAD_REACTORS
330
148
102
}
330
148
100
AcDbXrecord
 10
0.0
 20
0.0
 30
0.0
  0
XRECORD
  5
15A
102
{ACAD_REACTORS
330
148
102
}
330
148
100
AcDbXrecord
 10
0.0
 20
0.0
 30
0.0
  0
XRECORD
  5
157
102
{ACAD_REACTORS
330
148
102
}
330
148
100
AcDbXrecord
340
0
  0
XRECORD
  5
158
102
{ACAD_REACTORS
330
148
102
}
330
148
100
AcDbXrecord
 70
     0
  0
XRECORD
  5
14C
102
{ACAD_REACTORS
330
148
102
}
330
148
100
AcDbXrecord
  1

  0
XRECORD
  5
149
102
{ACAD_REACTORS
330
148
102
}
330
148
100
AcDbXrecord
 90
        1
  0
XRECORD
  5
14A
102
{ACAD_REACTORS
330
148
102
}
330
148
100
AcDbXrecord
 90
       70
  0
XRECORD
  5
162
102
{ACAD_REACTORS
330
148
102
}
330
148
100
AcDbXrecord
340
0
  0
XRECORD
  5
168
102
{ACAD_REACTORS
330
148
102
}
330
148
100
AcDbXrecord
 10
0.0
 20
0.0
 30
0.0
  0
XRECORD
  5
164
102
{ACAD_REACTORS
330
148
102
}
330
148
100
AcDbXrecord
 10
0.0
 20
0.0
 30
0.0
  0
XRECORD
  5
167
102
{ACAD_REACTORS
330
148
102
}
330
148
100
AcDbXrecord
 10
0.0
 20
0.0
 30
0.0
  0
XRECORD
  5
165
102
{ACAD_REACTORS
330
148
102
}
330
148
100
AcDbXrecord
 10
0.0
 20
0.0
 30
0.0
  0
XRECORD
  5
166
102
{ACAD_REACTORS
330
148
102
}
330
148
100
AcDbXrecord
 10
0.0
 20
0.0
 30
0.0
  0
XRECORD
  5
163
102
{ACAD_REACTORS
330
148
102
}
330
148
100
AcDbXrecord
 10
0.0
 20
0.0
 30
0.0
  0
XRECORD
  5
160
102
{ACAD_REACTORS
330
148
102
}
330
148
100
AcDbXrecord
340
0
  0
XRECORD
  5
161
102
{ACAD_REACTORS
330
148
102
}
330
148
100
AcDbXrecord
 70
     0
  0
XRECORD
  5
154
102
{ACAD_REACTORS
330
148
102
}
330
148
100
AcDbXrecord
  1
{8BCB40BD-61D4-4390-ADCA-37C16E882564}
  0
DICTIONARYVAR
  5
143
102
{ACAD_REACTORS
330
142
102
}
330
142
100
DictionaryVariables
280
     0
  1
1
  0
ENDSEC
  0
EOF
