  0
SECTION
  2
HEADER
  9
$ACADVER
  1
AC1014
  9
$ACADMAINTVER
 70
     9
  9
$DWGCODEPAGE
  3
ANSI_1250
  9
$INSBASE
 10
0.0
 20
0.0
 30
0.0
  9
$EXTMIN
 10
2.260492015141643
 20
4.365280205343481
 30
-0.0015258207003583
  9
$EXTMAX
 10
14.9293076081077
 20
17.17144779834366
 30
0.0000000349246037
  9
$LIMMIN
 10
0.0
 20
0.0
  9
$LIMMAX
 10
0.0
 20
0.0
  9
$ORTHOMODE
 70
     0
  9
$REGENMODE
 70
     1
  9
$FILLMODE
 70
     1
  9
$QTEXTMODE
 70
     0
  9
$MIRRTEXT
 70
     1
  9
$DRAGMODE
 70
     2
  9
$LTSCALE
 40
1.0
  9
$OSMODE
 70
  1007
  9
$ATTMODE
 70
     1
  9
$TEXTSIZE
 40
2.5
  9
$TRACEWID
 40
1.0
  9
$TEXTSTYLE
  7
STANDARD
  9
$CLAYER
  8
0
  9
$CELTYPE
  6
BYLAYER
  9
$CECOLOR
 62
   256
  9
$CELTSCALE
 40
1.0
  9
$DELOBJ
 70
     1
  9
$DISPSILH
 70
     0
  9
$DIMSCALE
 40
1.0
  9
$DIMASZ
 40
0.3
  9
$DIMEXO
 40
0.1
  9
$DIMDLI
 40
3.75
  9
$DIMRND
 40
0.0
  9
$DIMDLE
 40
0.0
  9
$DIMEXE
 40
0.1
  9
$DIMTP
 40
0.0
  9
$DIMTM
 40
0.0
  9
$DIMTXT
 40
0.2822222222222222
  9
$DIMCEN
 40
2.5
  9
$DIMTSZ
 40
0.0
  9
$DIMTOL
 70
     0
  9
$DIMLIM
 70
     0
  9
$DIMTIH
 70
     1
  9
$DIMTOH
 70
     1
  9
$DIMSE1
 70
     0
  9
$DIMSE2
 70
     0
  9
$DIMTAD
 70
     1
  9
$DIMZIN
 70
     0
  9
$DIMBLK
  1

  9
$DIMASO
 70
     1
  9
$DIMSHO
 70
     1
  9
$DIMPOST
  1

  9
$DIMAPOST
  1

  9
$DIMALT
 70
     0
  9
$DIMALTD
 70
     3
  9
$DIMALTF
 40
0.3937007874015748
  9
$DIMLFAC
 40
15.0
  9
$DIMTOFL
 70
     1
  9
$DIMTVP
 40
0.0
  9
$DIMTIX
 70
     0
  9
$DIMSOXD
 70
     0
  9
$DIMSAH
 70
     0
  9
$DIMBLK1
  1

  9
$DIMBLK2
  1

  9
$DIMSTYLE
  2
ISO-25
  9
$DIMCLRD
 70
     0
  9
$DIMCLRE
 70
     0
  9
$DIMCLRT
 70
     0
  9
$DIMTFAC
 40
1.0
  9
$DIMGAP
 40
0.1524
  9
$DIMJUST
 70
     0
  9
$DIMSD1
 70
     0
  9
$DIMSD2
 70
     0
  9
$DIMTOLJ
 70
     0
  9
$DIMTZIN
 70
     0
  9
$DIMALTZ
 70
     0
  9
$DIMALTTZ
 70
     0
  9
$DIMFIT
 70
     3
  9
$DIMUPT
 70
     0
  9
$DIMUNIT
 70
     2
  9
$DIMDEC
 70
     2
  9
$DIMTDEC
 70
     2
  9
$DIMALTU
 70
     2
  9
$DIMALTTD
 70
     3
  9
$DIMTXSTY
  7
STANDARD
  9
$DIMAUNIT
 70
     0
  9
$LUNITS
 70
     2
  9
$LUPREC
 70
     2
  9
$SKETCHINC
 40
1.0
  9
$FILLETRAD
 40
10.0
  9
$AUNITS
 70
     0
  9
$AUPREC
 70
     0
  9
$MENU
  1
.
  9
$ELEVATION
 40
0.0
  9
$PELEVATION
 40
0.0
  9
$THICKNESS
 40
0.0
  9
$LIMCHECK
 70
     0
  9
$BLIPMODE
 70
     0
  9
$CHAMFERA
 40
10.0
  9
$CHAMFERB
 40
10.0
  9
$CHAMFERC
 40
20.0
  9
$CHAMFERD
 40
0.0
  9
$SKPOLY
 70
     0
  9
$TDCREATE
 40
2454418.377763669
  9
$TDUPDATE
 40
2454420.411009653
  9
$TDINDWG
 40
0.0006233912
  9
$TDUSRTIMER
 40
0.0006233912
  9
$USRTIMER
 70
     1
  9
$ANGBASE
 50
0.0
  9
$ANGDIR
 70
     0
  9
$PDMODE
 70
     0
  9
$PDSIZE
 40
-1.0
  9
$PLINEWID
 40
0.0
  9
$COORDS
 70
     1
  9
$SPLFRAME
 70
     0
  9
$SPLINETYPE
 70
     6
  9
$SPLINESEGS
 70
     8
  9
$ATTDIA
 70
     0
  9
$ATTREQ
 70
     1
  9
$HANDLING
 70
 22529
  9
$HANDSEED
  5
2BE
  9
$SURFTAB1
 70
     6
  9
$SURFTAB2
 70
     6
  9
$SURFTYPE
 70
     6
  9
$SURFU
 70
     6
  9
$SURFV
 70
     6
  9
$UCSNAME
  2

  9
$UCSORG
 10
0.0
 20
0.0
 30
0.0
  9
$UCSXDIR
 10
1.0
 20
0.0
 30
0.0
  9
$UCSYDIR
 10
0.0
 20
1.0
 30
0.0
  9
$PUCSNAME
  2

  9
$PUCSORG
 10
0.0
 20
0.0
 30
0.0
  9
$PUCSXDIR
 10
1.0
 20
0.0
 30
0.0
  9
$PUCSYDIR
 10
0.0
 20
1.0
 30
0.0
  9
$USERI1
 70
     0
  9
$USERI2
 70
     0
  9
$USERI3
 70
     0
  9
$USERI4
 70
     0
  9
$USERI5
 70
     0
  9
$USERR1
 40
0.0
  9
$USERR2
 40
0.0
  9
$USERR3
 40
0.0
  9
$USERR4
 40
0.0
  9
$USERR5
 40
0.0
  9
$WORLDVIEW
 70
     1
  9
$SHADEDGE
 70
     3
  9
$SHADEDIF
 70
    70
  9
$TILEMODE
 70
     1
  9
$MAXACTVP
 70
    64
  9
$PINSBASE
 10
0.0
 20
0.0
 30
0.0
  9
$PLIMCHECK
 70
     0
  9
$PEXTMIN
 10
1.000000000000000E+20
 20
1.000000000000000E+20
 30
1.000000000000000E+20
  9
$PEXTMAX
 10
-1.000000000000000E+20
 20
-1.000000000000000E+20
 30
-1.000000000000000E+20
  9
$PLIMMIN
 10
0.0
 20
0.0
  9
$PLIMMAX
 10
420.0
 20
297.0
  9
$UNITMODE
 70
     0
  9
$VISRETAIN
 70
     1
  9
$PLINEGEN
 70
     0
  9
$PSLTSCALE
 70
     1
  9
$TREEDEPTH
 70
  3020
  9
$PICKSTYLE
 70
     1
  9
$CMLSTYLE
  2
STANDARD
  9
$CMLJUST
 70
     0
  9
$CMLSCALE
 40
20.0
  9
$PROXYGRAPHICS
 70
     1
  9
$MEASUREMENT
 70
     1
  0
ENDSEC
  0
SECTION
  2
CLASSES
  0
CLASS
  1
ACDBDICTIONARYWDFLT
  2
AcDbDictionaryWithDefault
  3
AutoCAD 2000
 90
        0
280
     0
281
     0
  0
CLASS
  1
ACDBPLACEHOLDER
  2
AcDbPlaceHolder
  3
AutoCAD 2000
 90
        0
280
     0
281
     0
  0
CLASS
  1
LAYOUT
  2
AcDbLayout
  3
AutoCAD 2000
 90
        0
280
     0
281
     0
  0
CLASS
  1
DICTIONARYVAR
  2
AcDbDictionaryVar
  3
AutoCAD 2000
 90
        0
280
     0
281
     0
  0
CLASS
  1
LONG_TRANSACTION
  2
AcDbLongTransaction
  3
AutoCAD 2000
 90
        0
280
     0
281
     0
  0
CLASS
  1
LWPOLYLINE
  2
AcDbPolyline
  3
AutoCAD 2000
 90
        0
280
     0
281
     1
  0
CLASS
  1
HATCH
  2
AcDbHatch
  3
AutoCAD 2000
 90
        0
280
     0
281
     1
  0
CLASS
  1
XRECORD
  2
AcDbXrecord
  3
AutoCAD 2000
 90
        0
280
     0
281
     0
  0
ENDSEC
  0
SECTION
  2
TABLES
  0
TABLE
  2
VPORT
  5
8
330
0
100
AcDbSymbolTable
 70
     3
  0
VPORT
  5
296
330
8
100
AcDbSymbolTableRecord
100
AcDbViewportTableRecord
  2
*ACTIVE
 70
     0
 10
0.0
 20
0.0
 11
1.0
 21
1.0
 12
8.594899811624671
 22
10.76836400184357
 13
0.0
 23
0.0
 14
10.0
 24
10.0
 15
10.0
 25
10.0
 16
0.0
 26
0.0
 36
1.0
 17
0.0
 27
0.0
 37
0.0
 40
12.93233673184747
 41
1.981907894736842
 42
50.0
 43
0.0
 44
0.0
 50
0.0
 51
0.0
 71
     0
 72
  2000
 73
     1
 74
     3
 75
     0
 76
     0
 77
     0
 78
     0
  0
ENDTAB
  0
TABLE
  2
LTYPE
  5
5
330
0
100
AcDbSymbolTable
 70
     6
  0
LTYPE
  5
14
330
5
100
AcDbSymbolTableRecord
100
AcDbLinetypeTableRecord
  2
BYBLOCK
 70
     0
  3

 72
    65
 73
     0
 40
0.0
  0
LTYPE
  5
15
330
5
100
AcDbSymbolTableRecord
100
AcDbLinetypeTableRecord
  2
BYLAYER
 70
     0
  3

 72
    65
 73
     0
 40
0.0
  0
LTYPE
  5
16
330
5
100
AcDbSymbolTableRecord
100
AcDbLinetypeTableRecord
  2
CONTINUOUS
 70
     0
  3
Solid line
 72
    65
 73
     0
 40
0.0
  0
ENDTAB
  0
TABLE
  2
LAYER
  5
2
330
0
100
AcDbSymbolTable
 70
     3
  0
LAYER
  5
10
330
2
100
AcDbSymbolTableRecord
100
AcDbLayerTableRecord
  2
0
 70
     0
 62
     7
  6
CONTINUOUS
  0
ENDTAB
  0
TABLE
  2
STYLE
  5
3
330
0
100
AcDbSymbolTable
 70
     4
  0
STYLE
  5
11
330
3
100
AcDbSymbolTableRecord
100
AcDbTextStyleTableRecord
  2
STANDARD
 70
     0
 40
0.0
 41
1.0
 50
0.0
 71
     0
 42
2.5
  3
ARIAL.TTF
  4

1001
ACAD
1000
Arial
1071
       34
  0
ENDTAB
  0
TABLE
  2
VIEW
  5
6
330
0
100
AcDbSymbolTable
 70
     0
  0
ENDTAB
  0
TABLE
  2
UCS
  5
7
330
0
100
AcDbSymbolTable
 70
     0
  0
ENDTAB
  0
TABLE
  2
APPID
  5
9
330
0
100
AcDbSymbolTable
 70
     1
  0
APPID
  5
12
330
9
100
AcDbSymbolTableRecord
100
AcDbRegAppTableRecord
  2
ACAD
 70
     0
  0
ENDTAB
  0
TABLE
  2
DIMSTYLE
  5
A
330
0
100
AcDbSymbolTable
 70
     6
  0
DIMSTYLE
105
27
330
A
100
AcDbSymbolTableRecord
100
AcDbDimStyleTableRecord
  2
ISO-25
 70
     0
  3

  4

  5

  6

  7

 40
1.0
 41
2.5
 42
0.625
 43
3.75
 44
1.25
 45
0.0
 46
0.0
 47
0.0
 48
0.0
140
2.5
141
2.5
142
0.0
143
0.03937007874016
144
1.0
145
0.0
146
1.0
147
0.625
 71
     0
 72
     0
 73
     0
 74
     0
 75
     0
 76
     0
 77
     1
 78
     8
170
     0
171
     3
172
     1
173
     0
174
     0
175
     0
176
     0
177
     0
178
     0
270
     2
271
     2
272
     2
273
     2
274
     3
340
11
275
     0
280
     0
281
     0
282
     0
283
     0
284
     8
285
     0
286
     0
287
     3
288
     0
  0
ENDTAB
  0
TABLE
  2
BLOCK_RECORD
  5
1
330
0
100
AcDbSymbolTable
 70
    24
  0
BLOCK_RECORD
  5
1F
102
{ACAD_XDICTIONARY
360
2BA
102
}
330
1
100
AcDbSymbolTableRecord
100
AcDbBlockTableRecord
  2
*MODEL_SPACE
  0
BLOCK_RECORD
  5
1B
102
{ACAD_XDICTIONARY
360
2B8
102
}
330
1
100
AcDbSymbolTableRecord
100
AcDbBlockTableRecord
  2
*PAPER_SPACE
  0
ENDTAB
  0
ENDSEC
  0
SECTION
  2
BLOCKS
  0
BLOCK
  5
20
330
1F
100
AcDbEntity
  8
0
100
AcDbBlockBegin
  2
*MODEL_SPACE
 70
     0
 10
0.0
 20
0.0
 30
0.0
  3
*MODEL_SPACE
  1

  0
ENDBLK
  5
21
330
1F
100
AcDbEntity
  8
0
100
AcDbBlockEnd
  0
BLOCK
  5
1C
330
1B
100
AcDbEntity
 67
     1
  8
0
100
AcDbBlockBegin
  2
*PAPER_SPACE
 70
     0
 10
0.0
 20
0.0
 30
0.0
  3
*PAPER_SPACE
  1

  0
ENDBLK
  5
1D
330
1B
100
AcDbEntity
 67
     1
  8
0
100
AcDbBlockEnd
  0
ENDSEC
  0
SECTION
  2
ENTITIES
  0
LINE
  5
DD
330
1F
100
AcDbEntity
  8
0
100
AcDbLine
 10
2.262102742732448
 20
11.17093354838466
 30
0.0
 11
14.92876925045339
 21
11.17093354838466
 31
0.0
  0
LINE
  5
DE
330
1F
100
AcDbEntity
  8
0
100
AcDbLine
 10
14.01644704713511
 20
11.70554270721848
 30
0.0
 11
3.174424946050726
 21
11.70554270721848
 31
0.0
  0
LINE
  5
DF
330
1F
100
AcDbEntity
  8
0
100
AcDbLine
 10
2.800456662715358
 20
12.08929588772232
 30
0.0
 11
2.800456662715358
 21
16.25257105010127
 31
0.0
  0
LINE
  5
E0
330
1F
100
AcDbEntity
  8
0
100
AcDbLine
 10
2.262102742732448
 20
17.17093338943894
 30
0.0
 11
2.262102742732448
 21
11.17093354838466
 31
0.0
  0
LINE
  5
E1
330
1F
100
AcDbEntity
  8
0
100
AcDbLine
 10
14.92876925045339
 20
11.17093354838466
 30
0.0
 11
14.92876925045339
 21
17.17093338943894
 31
0.0
  0
LINE
  5
E2
330
1F
100
AcDbEntity
  8
0
100
AcDbLine
 10
14.39041533047048
 20
16.25257105010127
 30
0.0
 11
14.39041533047048
 21
12.08929588772232
 31
0.0
  0
LINE
  5
E3
330
1F
100
AcDbEntity
  8
0
100
AcDbLine
 10
3.174424946050726
 20
16.63632423060511
 30
0.0
 11
14.01644704713511
 21
16.63632423060511
 31
0.0
  0
LINE
  5
E4
330
1F
100
AcDbEntity
  8
0
100
AcDbLine
 10
14.92876925045339
 20
17.17093338943894
 30
0.0
 11
2.262102742732448
 21
17.17093338943894
 31
0.0
  0
LWPOLYLINE
  5
E5
330
1F
100
AcDbEntity
  8
0
100
AcDbPolyline
 90
        3
 70
   128
 43
0.0
 10
3.174424946050726
 20
11.70554270721848
 10
2.950130680939438
 20
11.70548906303818
 10
2.799768030386053
 20
11.70537541684881
  0
LWPOLYLINE
  5
E6
330
1F
100
AcDbEntity
  8
0
100
AcDbPolyline
 90
        3
 70
   128
 43
0.0
 10
2.799768030386053
 20
11.70537541684881
 10
2.800280232966823
 20
11.88197464125728
 10
2.800456662715358
 20
12.08929588772232
  0
LWPOLYLINE
  5
E7
330
1F
100
AcDbEntity
  8
0
100
AcDbPolyline
 90
        3
 70
   128
 43
0.0
 10
14.39110396279978
 20
16.63649152097478
 10
14.39059176021902
 20
16.45989229656632
 10
14.39041533047048
 20
16.25257105010127
  0
LWPOLYLINE
  5
E8
330
1F
100
AcDbEntity
  8
0
100
AcDbPolyline
 90
        3
 70
   128
 43
0.0
 10
14.01644704713511
 20
16.63632423060511
 10
14.2407413122464
 20
16.63637787478541
 10
14.39110396279978
 20
16.63649152097478
  0
LWPOLYLINE
  5
E9
330
1F
100
AcDbEntity
  8
0
100
AcDbPolyline
 90
        3
 70
   128
 43
0.0
 10
14.39041533047048
 20
12.08929588772232
 10
14.39059176021902
 20
11.88198139645035
 10
14.39110396279978
 20
11.70537541684881
  0
LWPOLYLINE
  5
EA
330
1F
100
AcDbEntity
  8
0
100
AcDbPolyline
 90
        3
 70
   128
 43
0.0
 10
14.39110396279978
 20
11.70537541684881
 10
14.24074925953237
 20
11.70548906303818
 10
14.01644704713511
 20
11.70554270721848
  0
LWPOLYLINE
  5
EB
330
1F
100
AcDbEntity
  8
0
100
AcDbPolyline
 90
        3
 70
   128
 43
0.0
 10
2.799768030386053
 20
16.63649152097478
 10
2.950122733653468
 20
16.63637787478541
 10
3.174424946050726
 20
16.63632423060511
  0
LWPOLYLINE
  5
EC
330
1F
100
AcDbEntity
  8
0
100
AcDbPolyline
 90
        3
 70
   128
 43
0.0
 10
2.800456662715358
 20
16.25257105010127
 10
2.800280232966823
 20
16.45988554137324
 10
2.799768030386053
 20
16.63649152097478
  0
LINE
  5
ED
330
1F
100
AcDbEntity
  8
0
100
AcDbLine
 10
2.799768030386053
 20
11.70537541684881
 30
0.0
 11
4.090476413310451
 21
12.035672370368
 31
0.0
  0
LWPOLYLINE
  5
EE
330
1F
100
AcDbEntity
  8
0
100
AcDbPolyline
 90
       17
 70
   128
 43
0.0
 10
13.10039557987539
 20
12.035672370368
 10
11.59817634000468
 20
12.03903089341894
 10
10.84706165367452
 20
12.04067975657557
 10
10.09593713257797
 20
12.04227259136612
 10
9.795470813652757
 20
12.04289049285029
 10
9.494994063914699
 20
12.0434726315476
 10
9.194507231057567
 20
12.04396019754186
 10
8.894010712445659
 20
12.0442947782812
 10
8.593504880802029
 20
12.04441815989589
 10
8.293283487102273
 20
12.04429179804896
 10
7.993071506163361
 20
12.04395562785243
 10
7.692869285485032
 20
12.04346726712957
 10
7.392676949243627
 20
12.04288532711441
 10
7.092495043815059
 20
12.04226762431239
 10
6.341990411024175
 20
12.04067578293259
 10
5.591756283979498
 20
12.03902890659745
 10
4.090476413310451
 20
12.035672370368
  0
LINE
  5
EF
330
1F
100
AcDbEntity
  8
0
100
AcDbLine
 10
14.39110396279978
 20
11.70537541684881
 30
0.0
 11
13.10039557987539
 21
12.035672370368
 31
0.0
  0
LWPOLYLINE
  5
F0
330
1F
100
AcDbEntity
  8
0
100
AcDbPolyline
 90
       97
 70
   128
 43
0.0
 10
8.595435996592922
 20
11.72642122087255
 10
8.60677253925888
 20
11.72646334148819
 10
8.618060536735637
 20
11.72658910728867
 10
8.629251651829363
 20
11.72679831959183
 10
8.640297963336987
 20
11.72708998498693
 10
8.651152170937145
 20
11.72746271269893
 10
8.661767789215726
 20
11.72791491327062
 10
8.672099366526687
 20
11.72844479856268
 10
8.682102665047727
 20
11.72905018307144
 10
8.691734837731603
 20
11.72972828524684
 10
8.700954645614707
 20
11.73047612485662
 10
8.709722600619874
 20
11.73129072166855
 10
8.718001176656169
 20
11.73216849940394
 10
8.725754896542312
 20
11.73310548441981
 10
8.732950580359382
 20
11.73409810043747
 10
8.739557395121339
 20
11.73514177776749
 10
8.745547065874816
 20
11.73623234408473
 10
8.750893937787298
 20
11.73736463365331
 10
8.755575112741077
 20
11.73853427546596
 10
8.759570548674346
 20
11.73973590510463
 10
8.762863134087009
 20
11.74096475419775
 10
8.765438774964097
 20
11.74221506096299
 10
8.767286444446328
 20
11.74348205702876
 10
8.768398207665367
 20
11.7447597819306
 10
8.768769333502532
 20
11.74604326861476
 10
8.768398207665367
 20
11.74732655661677
 10
8.767286444446328
 20
11.74860428151861
 10
8.765438774964097
 20
11.74987127758438
 10
8.762863134087009
 20
11.75112178303177
 10
8.759570548674346
 20
11.75235043344274
 10
8.755575112741077
 20
11.75355226176356
 10
8.750893937787298
 20
11.75472170489405
 10
8.745547065874816
 20
11.75585419314479
 10
8.739557395121339
 20
11.75694456077988
 10
8.732950580359382
 20
11.7579882381099
 10
8.725754896542312
 20
11.75898085412756
 10
8.718001176656169
 20
11.75991803782557
 10
8.709722600619874
 20
11.76079561687882
 10
8.700954645614707
 20
11.76161021369075
 10
8.691734837731603
 20
11.76235825198268
 10
8.682102665047727
 20
11.76303615547592
 10
8.672099366526687
 20
11.76364153998469
 10
8.661767789215726
 20
11.76417142527675
 10
8.651152170937145
 20
11.76462382453059
 10
8.640297963336987
 20
11.76499655224259
 10
8.629251651829363
 20
11.76528801895554
 10
8.618060536735637
 20
11.7654972312587
 10
8.60677253925888
 20
11.76562299705918
 10
8.59543599659292
 20
11.76566511767482
 10
8.584099453926963
 20
11.76562299705918
 10
8.572811456450207
 20
11.7654972312587
 10
8.56162034135648
 20
11.76528801895554
 10
8.550574029848856
 20
11.76499655224259
 10
8.5397198222487
 20
11.76462382453059
 10
8.529104203970117
 20
11.76417142527675
 10
8.518772626659156
 20
11.76364153998469
 10
8.508769328138116
 20
11.76303615547592
 10
8.49913715545424
 20
11.76235825198268
 10
8.489917347571138
 20
11.76161021369075
 10
8.481149392565969
 20
11.76079561687882
 10
8.472870816529674
 20
11.75991803782557
 10
8.465117096643529
 20
11.75898085412756
 10
8.457921412826461
 20
11.7579882381099
 10
8.451314598064504
 20
11.75694456077988
 10
8.445324927311027
 20
11.75585419314479
 10
8.439978055398546
 20
11.75472170489405
 10
8.435296880444766
 20
11.75355226176356
 10
8.431301444511497
 20
11.75235043344274
 10
8.428008859098834
 20
11.75112178303177
 10
8.425433218221746
 20
11.74987127758438
 10
8.423585548739517
 20
11.74860428151861
 10
8.422473785520477
 20
11.74732655661677
 10
8.422102659683309
 20
11.74604326861476
 10
8.422473785520477
 20
11.7447597819306
 10
8.423585548739517
 20
11.74348205702876
 10
8.425433218221746
 20
11.74221506096299
 10
8.428008859098834
 20
11.74096475419775
 10
8.431301444511497
 20
11.73973590510463
 10
8.435296880444766
 20
11.73853427546596
 10
8.439978055398546
 20
11.73736463365331
 10
8.445324927311027
 20
11.73623234408473
 10
8.451314598064504
 20
11.73514177776749
 10
8.457921412826461
 20
11.73409810043747
 10
8.465117096643529
 20
11.73310548441981
 10
8.472870816529674
 20
11.73216849940394
 10
8.481149392565969
 20
11.73129072166855
 10
8.489917347571138
 20
11.73047612485662
 10
8.49913715545424
 20
11.72972828524684
 10
8.508769328138116
 20
11.72905018307144
 10
8.518772626659156
 20
11.72844479856268
 10
8.529104203970117
 20
11.72791491327062
 10
8.5397198222487
 20
11.72746271269893
 10
8.550574029848856
 20
11.72708998498693
 10
8.56162034135648
 20
11.72679831959183
 10
8.572811456450207
 20
11.72658910728867
 10
8.584099453926963
 20
11.72646334148819
 10
8.595435996592922
 20
11.72642122087255
  0
LINE
  5
F1
330
1F
100
AcDbEntity
  8
0
100
AcDbLine
 10
14.39110396279978
 20
16.63649152097478
 30
0.0
 11
13.11082957162547
 21
16.30886485554154
 31
0.0
  0
LWPOLYLINE
  5
F2
330
1F
100
AcDbEntity
  8
0
100
AcDbPolyline
 90
       14
 70
   128
 43
0.0
 10
4.08004242156037
 20
16.30886485554154
 10
4.788771052897853
 20
16.30762984730179
 10
5.497514188032233
 20
16.3064983524618
 10
6.206273217738552
 20
16.30551129954432
 10
6.915048936745407
 20
16.30470981575424
 10
7.623918334385636
 20
16.30415489651139
 10
8.332805762430908
 20
16.30388786770279
 10
9.041696319720033
 20
16.30392045157527
 10
9.750575303773963
 20
16.30426417169347
 10
10.31063693736084
 20
16.30474418776607
 10
10.87068794145274
 20
16.30537142731125
 10
11.43072722329783
 20
16.30611986296748
 10
12.27078833156912
 20
16.30741507189845
 10
13.11082957162547
 20
16.30886485554154
  0
LINE
  5
F3
330
1F
100
AcDbEntity
  8
0
100
AcDbLine
 10
2.799768030386053
 20
16.63649152097478
 30
0.0
 11
4.08004242156037
 21
16.30886485554154
 31
0.0
  0
LWPOLYLINE
  5
F4
330
1F
100
AcDbEntity
  8
0
100
AcDbPolyline
 90
        7
 70
   128
 43
0.0
 10
13.11082957162547
 20
16.30886485554154
 10
13.10715315713572
 20
15.59672614313538
 10
13.10408987575857
 20
14.8845693009831
 10
13.101772844534
 20
14.17239692272106
 10
13.10034233305939
 20
13.46016099430497
 10
13.09987225109426
 20
12.74791539090251
 10
13.10039557987539
 20
12.035672370368
  0
LWPOLYLINE
  5
F5
330
1F
100
AcDbEntity
  8
0
100
AcDbPolyline
 90
        9
 70
   128
 43
0.0
 10
4.090476413310451
 20
12.035672370368
 10
4.090970734497788
 20
12.56980737425263
 10
4.090901593109848
 20
13.10394386825338
 10
4.090268194418036
 20
13.63809213417148
 10
4.089099546016139
 20
14.17223495864341
 10
4.087436576426906
 20
14.7064032194751
 10
4.085334916652126
 20
15.24056216455872
 10
4.082851389786484
 20
15.77471832809225
 10
4.08004242156037
 20
16.30886485554154
  0
ARC
  5
F6
330
1F
100
AcDbEntity
  8
0
100
AcDbCircle
 10
8.61141862627444
 20
10.83433451028915
 30
0.0
 40
0.9115993321683053
100
AcDbArc
 50
81.5798296399596
 51
91.00459062995625
  0
ARC
  5
F7
330
1F
100
AcDbEntity
  8
0
100
AcDbCircle
 10
8.579453366911405
 20
10.83433451028915
 30
0.0
 40
0.9115993321683072
100
AcDbArc
 50
88.99540937004386
 51
98.42017036004051
  0
CIRCLE
  5
F8
330
1F
100
AcDbEntity
  8
0
100
AcDbCircle
 10
8.595435996592922
 20
12.7709334689118
 30
0.0
 40
0.3665179007108037
  0
CIRCLE
  5
F9
330
1F
100
AcDbEntity
  8
0
100
AcDbCircle
 10
8.595435996592922
 20
12.7709334689118
 30
0.0
 40
0.1733333333333338
  0
LINE
  5
18A
330
1F
100
AcDbEntity
  8
0
100
AcDbLine
 10
8.031999519096377
 20
4.365574963967951
 30
0.0
 11
9.158872474089466
 21
4.365574963967951
 31
0.0
  0
LINE
  5
18B
330
1F
100
AcDbEntity
  8
0
100
AcDbLine
 10
12.74783694558303
 20
4.437267828851151
 30
0.0
 11
9.158872474089466
 21
4.365574963967951
 31
0.0
  0
LINE
  5
18C
330
1F
100
AcDbEntity
  8
0
100
AcDbLine
 10
9.05539668153983
 20
4.520628313728066
 30
0.0
 11
9.158872474089466
 21
4.365574963967951
 31
0.0
  0
LINE
  5
18D
330
1F
100
AcDbEntity
  8
0
100
AcDbLine
 10
12.84721712006983
 20
4.596464722499225
 30
0.0
 11
12.74783694558303
 21
4.437267828851151
 31
0.0
  0
LINE
  5
18E
330
1F
100
AcDbEntity
  8
0
100
AcDbLine
 10
4.369282954312589
 20
4.595952160875289
 30
0.0
 11
4.48351915897225
 21
4.436459121507543
 31
0.0
  0
LINE
  5
18F
330
1F
100
AcDbEntity
  8
0
100
AcDbLine
 10
8.147474312426895
 20
4.52038833371238
 30
0.0
 11
8.031999519096377
 21
4.365574963967951
 31
0.0
  0
LINE
  5
190
330
1F
100
AcDbEntity
  8
0
100
AcDbLine
 10
4.48351915897225
 20
4.436459121507543
 30
0.0
 11
8.031999519096377
 21
4.365574963967951
 31
0.0
  0
LINE
  5
191
330
1F
100
AcDbEntity
  8
0
100
AcDbLine
 10
4.077836254975083
 20
4.601781123997426
 30
0.0
 11
8.221476132413627
 21
4.518908316017842
 31
0.0
  0
LINE
  5
192
330
1F
100
AcDbEntity
  8
0
100
AcDbLine
 10
8.969395860772214
 20
4.518908316017842
 30
0.0
 11
13.11303573821076
 21
4.601781123997426
 31
0.0
  0
ARC
  5
193
330
1F
100
AcDbEntity
  8
0
100
AcDbCircle
 10
8.595435996592922
 20
4.970939046460745
 30
0.0
 40
0.5866666666666676
100
AcDbArc
 50
287.1847959010884
 51
309.6005648414014
  0
ARC
  5
194
330
1F
100
AcDbEntity
  8
0
100
AcDbCircle
 10
8.595435996592922
 20
4.970939046460745
 30
0.0
 40
0.5866666666666675
100
AcDbArc
 50
230.3994351586003
 51
252.8152040989132
  0
LINE
  5
195
330
1F
100
AcDbEntity
  8
0
100
AcDbLine
 10
2.262102742732448
 20
7.53143325857486
 30
0.0
 11
14.92876925045339
 21
7.53143325857486
 31
0.0
  0
LINE
  5
196
330
1F
100
AcDbEntity
  8
0
100
AcDbLine
 10
14.92876925045339
 20
7.53143325857486
 30
0.0
 11
14.92876925045339
 21
7.298099750401235
 31
0.0
  0
LINE
  5
197
330
1F
100
AcDbEntity
  8
0
100
AcDbLine
 10
2.262102742732448
 20
7.53143325857486
 30
0.0
 11
2.262102742732448
 21
7.298099750401235
 31
0.0
  0
LINE
  5
198
330
1F
100
AcDbEntity
  8
0
100
AcDbLine
 10
14.92876925045339
 20
7.298099750401235
 30
0.0
 11
2.262102742732448
 21
7.298099750401235
 31
0.0
  0
LWPOLYLINE
  5
199
330
1F
100
AcDbEntity
  8
0
100
AcDbPolyline
 90
       17
 70
   128
 43
0.0
 10
13.11352290684072
 20
4.603037689250366
 10
11.60691755984314
 20
4.573497428617534
 10
10.85360902522095
 20
4.559006645402964
 10
10.10029085451452
 20
4.545026177288747
 10
9.798946459830684
 20
4.539619042596873
 10
9.497591534992935
 20
4.53454181961383
 10
9.196226527036113
 20
4.530297174177225
 10
8.894851982336128
 20
4.527388070147888
 10
8.593468348509889
 20
4.526317272704498
 10
8.292374441763641
 20
4.527413700145141
 10
7.991289724648876
 20
4.530337506653523
 10
7.690214593947811
 20
4.534588509918904
 10
7.389149447024745
 20
4.539666328948395
 10
7.088094830255591
 20
4.545070781431253
 10
6.335408270101629
 20
4.559041812143382
 10
5.582991818329576
 20
4.573516104739563
 10
4.077349086345119
 20
4.603037689250366
  0
LINE
  5
19A
330
1F
100
AcDbEntity
  8
0
100
AcDbLine
 10
2.877430100978298
 20
7.298099750401235
 30
0.0
 11
4.077349086345119
 21
4.603037689250366
 31
0.0
  0
LINE
  5
19B
330
1F
100
AcDbEntity
  8
0
100
AcDbLine
 10
14.31344189220754
 20
7.298099750401235
 30
0.0
 11
13.11352290684072
 21
4.603037689250366
 31
0.0
  0
ARC
  5
19C
330
1F
100
AcDbEntity
  8
0
100
AcDbCircle
 10
8.596493700613418
 20
7.162372784083044
 30
0.0
 40
0.1720929484786029
100
AcDbArc
 50
269.6478510105818
 51
52.06270491210227
  0
ARC
  5
19D
330
1F
100
AcDbEntity
  8
0
100
AcDbCircle
 10
8.594378292572427
 20
7.162372784083044
 30
0.0
 40
0.172092948478604
100
AcDbArc
 50
127.9372950878982
 51
270.3521489894191
  0
ARC
  5
19E
330
1F
100
AcDbEntity
  8
0
100
AcDbCircle
 10
8.595435996592922
 20
7.165673284663447
 30
0.0
 40
0.1733415774934017
100
AcDbArc
 50
180.6739244294249
 51
359.3260755705766
  0
LINE
  5
19F
330
1F
100
AcDbEntity
  8
0
100
AcDbLine
 10
8.221476132413627
 20
4.518908316017842
 30
0.0
 11
8.969395860772214
 21
4.518908316017842
 31
0.0
  0
LWPOLYLINE
  5
1A0
330
1F
100
AcDbEntity
  8
0
100
AcDbPolyline
 90
        3
 70
   128
 43
0.0
 10
4.077349086345119
 20
4.603037689250366
 10
4.077862083654486
 20
4.601884637397186
 10
4.077839433889471
 20
4.601936096073842
  0
LWPOLYLINE
  5
1A1
330
1F
100
AcDbEntity
  8
0
100
AcDbPolyline
 90
        3
 70
   128
 43
0.0
 10
13.11303255929637
 20
4.601936195414917
 10
13.11300951216705
 20
4.601884637397186
 10
13.11352290684072
 20
4.603037689250366
  0
LINE
  5
1A2
330
1F
100
AcDbEntity
  8
0
100
AcDbLine
 10
8.595435996592922
 20
4.41046302926705
 30
0.0
 11
8.768769333502532
 21
4.41046302926705
 31
0.0
  0
LINE
  5
1A3
330
1F
100
AcDbEntity
  8
0
100
AcDbLine
 10
8.422102659683309
 20
4.41046302926705
 30
0.0
 11
8.595435996592922
 21
4.41046302926705
 31
0.0
  0
ENDSEC
  0
SECTION
  2
OBJECTS
  0
DICTIONARY
  5
C
330
0
100
AcDbDictionary
  3
ACAD_GROUP
350
D
  3
ACAD_LAYOUT
350
1A
  3
ACAD_MLINESTYLE
350
17
  3
ACAD_PLOTSETTINGS
350
19
  3
ACAD_PLOTSTYLENAME
350
E
  3
ACDBHEADERROUNDTRIPXREC
350
297
  3
ACDBVARIABLEDICTIONARY
350
294
  0
DICTIONARY
  5
2BA
330
1F
100
AcDbDictionary
280
     1
  3
ACAD_LAYOUTSELFREF
360
2BB
  0
DICTIONARY
  5
2B8
330
1B
100
AcDbDictionary
280
     1
  3
ACAD_LAYOUTSELFREF
360
2B9
  0
DICTIONARY
  5
D
102
{ACAD_REACTORS
330
C
102
}
330
C
100
AcDbDictionary
  0
DICTIONARY
  5
1A
102
{ACAD_REACTORS
330
C
102
}
330
C
100
AcDbDictionary
  0
DICTIONARY
  5
17
102
{ACAD_REACTORS
330
C
102
}
330
C
100
AcDbDictionary
  3
STANDARD
350
18
  0
DICTIONARY
  5
19
102
{ACAD_REACTORS
330
C
102
}
330
C
100
AcDbDictionary
  0
ACDBDICTIONARYWDFLT
  5
E
102
{ACAD_REACTORS
330
C
102
}
330
C
100
AcDbDictionary
281
     1
  3
Normal
350
F
100
AcDbDictionaryWithDefault
340
F
  0
DICTIONARY
  5
297
102
{ACAD_REACTORS
330
C
102
}
330
C
100
AcDbDictionary
  3
CEPSNTYPE
350
2A1
  3
DIMSTYLEDATA
350
2A5
  3
FINGERPRINTGUID
350
2A2
  3
HYPERLINKBASE
350
29A
  3
INSUNITS
350
2A0
  3
LAYOUTDICT
350
29C
  3
LWETCUNION
350
29F
  3
PLOTSETDICT
350
29D
  3
PLOTSTYLNAMDICT
350
29E
  3
PSVPSCALE
350
2A4
  3
PUCSBASE
350
2A8
  3
PUCSORGBACK
350
2AE
  3
PUCSORGBOTTOM
350
2AA
  3
PUCSORGFRONT
350
2AD
  3
PUCSORGLEFT
350
2AB
  3
PUCSORGRIGHT
350
2AC
  3
PUCSORGTOP
350
2A9
  3
PUCSORTHOREF
350
2A6
  3
PUCSORTHOVIEW
350
2A7
  3
STYLESHEET
350
29B
  3
TSTACKALIGN
350
298
  3
TSTACKSIZE
350
299
  3
UCSBASE
350
2B1
  3
UCSORGBACK
350
2B7
  3
UCSORGBOTTOM
350
2B3
  3
UCSORGFRONT
350
2B6
  3
UCSORGLEFT
350
2B4
  3
UCSORGRIGHT
350
2B5
  3
UCSORGTOP
350
2B2
  3
UCSORTHOREF
350
2AF
  3
UCSORTHOVIEW
350
2B0
  3
VERSIONGUID
350
2A3
  0
DICTIONARY
  5
294
102
{ACAD_REACTORS
330
C
102
}
330
C
100
AcDbDictionary
  3
DIMASSOC
350
295
  0
XRECORD
  5
2BB
102
{ACAD_REACTORS
330
2BA
102
}
330
2BA
100
AcDbXrecord
340
1F
  0
XRECORD
  5
2B9
102
{ACAD_REACTORS
330
2B8
102
}
330
2B8
100
AcDbXrecord
340
1B
  0
MLINESTYLE
  5
18
102
{ACAD_REACTORS
330
17
102
}
330
17
100
AcDbMlineStyle
  2
STANDARD
 70
     0
  3

 62
   256
 51
90.0
 52
90.0
 71
     2
 49
0.5
 62
   256
  6
BYLAYER
 49
-0.5
 62
   256
  6
BYLAYER
  0
ACDBPLACEHOLDER
  5
F
102
{ACAD_REACTORS
330
E
102
}
330
E
100
AcDbPlaceHolder
280
     0
  0
XRECORD
  5
2A1
102
{ACAD_REACTORS
330
297
102
}
330
297
100
AcDbXrecord
 90
        0
  0
XRECORD
  5
2A5
102
{ACAD_REACTORS
330
297
102
}
330
297
100
AcDbXrecord
1000
DSTYLE
1002
{
1070
   278
 70
    44
1002
}
  0
XRECORD
  5
2A2
102
{ACAD_REACTORS
330
297
102
}
330
297
100
AcDbXrecord
  1
{72AA560B-D415-4FCC-B58D-E08310EB199E}
  0
XRECORD
  5
29A
102
{ACAD_REACTORS
330
297
102
}
330
297
100
AcDbXrecord
  1

  0
XRECORD
  5
2A0
102
{ACAD_REACTORS
330
297
102
}
330
297
100
AcDbXrecord
 90
        4
  0
XRECORD
  5
29C
102
{ACAD_REACTORS
330
297
102
}
330
297
100
AcDbXrecord
340
1A
  0
XRECORD
  5
29F
102
{ACAD_REACTORS
330
297
102
}
330
297
100
AcDbXrecord
 90
    10781
  0
XRECORD
  5
29D
102
{ACAD_REACTORS
330
297
102
}
330
297
100
AcDbXrecord
340
19
  0
XRECORD
  5
29E
102
{ACAD_REACTORS
330
297
102
}
330
297
100
AcDbXrecord
340
E
  0
XRECORD
  5
2A4
102
{ACAD_REACTORS
330
297
102
}
330
297
100
AcDbXrecord
 40
0.0
  0
XRECORD
  5
2A8
102
{ACAD_REACTORS
330
297
102
}
330
297
100
AcDbXrecord
340
0
  0
XRECORD
  5
2AE
102
{ACAD_REACTORS
330
297
102
}
330
297
100
AcDbXrecord
 10
0.0
 20
0.0
 30
0.0
  0
XRECORD
  5
2AA
102
{ACAD_REACTORS
330
297
102
}
330
297
100
AcDbXrecord
 10
0.0
 20
0.0
 30
0.0
  0
XRECORD
  5
2AD
102
{ACAD_REACTORS
330
297
102
}
330
297
100
AcDbXrecord
 10
0.0
 20
0.0
 30
0.0
  0
XRECORD
  5
2AB
102
{ACAD_REACTORS
330
297
102
}
330
297
100
AcDbXrecord
 10
0.0
 20
0.0
 30
0.0
  0
XRECORD
  5
2AC
102
{ACAD_REACTORS
330
297
102
}
330
297
100
AcDbXrecord
 10
0.0
 20
0.0
 30
0.0
  0
XRECORD
  5
2A9
102
{ACAD_REACTORS
330
297
102
}
330
297
100
AcDbXrecord
 10
0.0
 20
0.0
 30
0.0
  0
XRECORD
  5
2A6
102
{ACAD_REACTORS
330
297
102
}
330
297
100
AcDbXrecord
340
0
  0
XRECORD
  5
2A7
102
{ACAD_REACTORS
330
297
102
}
330
297
100
AcDbXrecord
 70
     0
  0
XRECORD
  5
29B
102
{ACAD_REACTORS
330
297
102
}
330
297
100
AcDbXrecord
  1

  0
XRECORD
  5
298
102
{ACAD_REACTORS
330
297
102
}
330
297
100
AcDbXrecord
 90
        1
  0
XRECORD
  5
299
102
{ACAD_REACTORS
330
297
102
}
330
297
100
AcDbXrecord
 90
       70
  0
XRECORD
  5
2B1
102
{ACAD_REACTORS
330
297
102
}
330
297
100
AcDbXrecord
340
0
  0
XRECORD
  5
2B7
102
{ACAD_REACTORS
330
297
102
}
330
297
100
AcDbXrecord
 10
0.0
 20
0.0
 30
0.0
  0
XRECORD
  5
2B3
102
{ACAD_REACTORS
330
297
102
}
330
297
100
AcDbXrecord
 10
0.0
 20
0.0
 30
0.0
  0
XRECORD
  5
2B6
102
{ACAD_REACTORS
330
297
102
}
330
297
100
AcDbXrecord
 10
0.0
 20
0.0
 30
0.0
  0
XRECORD
  5
2B4
102
{ACAD_REACTORS
330
297
102
}
330
297
100
AcDbXrecord
 10
0.0
 20
0.0
 30
0.0
  0
XRECORD
  5
2B5
102
{ACAD_REACTORS
330
297
102
}
330
297
100
AcDbXrecord
 10
0.0
 20
0.0
 30
0.0
  0
XRECORD
  5
2B2
102
{ACAD_REACTORS
330
297
102
}
330
297
100
AcDbXrecord
 10
0.0
 20
0.0
 30
0.0
  0
XRECORD
  5
2AF
102
{ACAD_REACTORS
330
297
102
}
330
297
100
AcDbXrecord
340
0
  0
XRECORD
  5
2B0
102
{ACAD_REACTORS
330
297
102
}
330
297
100
AcDbXrecord
 70
     0
  0
XRECORD
  5
2A3
102
{ACAD_REACTORS
330
297
102
}
330
297
100
AcDbXrecord
  1
{E9F7F429-6977-4A96-B394-95BEE6AC48E0}
  0
DICTIONARYVAR
  5
295
102
{ACAD_REACTORS
330
294
102
}
330
294
100
DictionaryVariables
280
     0
  1
1
  0
ENDSEC
  0
EOF
