  0
SECTION
  2
HEADER
  9
$ACADVER
  1
AC1014
  9
$ACADMAINTVER
 70
     9
  9
$DWGCODEPAGE
  3
ANSI_1250
  9
$INSBASE
 10
0.0
 20
0.0
 30
0.0
  9
$EXTMIN
 10
2.593583751369251
 20
4.365280205343481
 30
-0.0015258207003583
  9
$EXTMAX
 10
14.59621587188008
 20
16.8381958448307
 30
0.0000000349246037
  9
$LIMMIN
 10
0.0
 20
0.0
  9
$LIMMAX
 10
0.0
 20
0.0
  9
$ORTHOMODE
 70
     0
  9
$REGENMODE
 70
     1
  9
$FILLMODE
 70
     1
  9
$QTEXTMODE
 70
     0
  9
$MIRRTEXT
 70
     1
  9
$DRAGMODE
 70
     2
  9
$LTSCALE
 40
1.0
  9
$OSMODE
 70
  1007
  9
$ATTMODE
 70
     1
  9
$TEXTSIZE
 40
2.5
  9
$TRACEWID
 40
1.0
  9
$TEXTSTYLE
  7
STANDARD
  9
$CLAYER
  8
0
  9
$CELTYPE
  6
BYLAYER
  9
$CECOLOR
 62
   256
  9
$CELTSCALE
 40
1.0
  9
$DELOBJ
 70
     1
  9
$DISPSILH
 70
     0
  9
$DIMSCALE
 40
1.0
  9
$DIMASZ
 40
0.3
  9
$DIMEXO
 40
0.1
  9
$DIMDLI
 40
3.75
  9
$DIMRND
 40
0.0
  9
$DIMDLE
 40
0.0
  9
$DIMEXE
 40
0.1
  9
$DIMTP
 40
0.0
  9
$DIMTM
 40
0.0
  9
$DIMTXT
 40
0.2822222222222222
  9
$DIMCEN
 40
2.5
  9
$DIMTSZ
 40
0.0
  9
$DIMTOL
 70
     0
  9
$DIMLIM
 70
     0
  9
$DIMTIH
 70
     1
  9
$DIMTOH
 70
     1
  9
$DIMSE1
 70
     0
  9
$DIMSE2
 70
     0
  9
$DIMTAD
 70
     1
  9
$DIMZIN
 70
     0
  9
$DIMBLK
  1

  9
$DIMASO
 70
     1
  9
$DIMSHO
 70
     1
  9
$DIMPOST
  1

  9
$DIMAPOST
  1

  9
$DIMALT
 70
     0
  9
$DIMALTD
 70
     3
  9
$DIMALTF
 40
0.3937007874015748
  9
$DIMLFAC
 40
15.0
  9
$DIMTOFL
 70
     1
  9
$DIMTVP
 40
0.0
  9
$DIMTIX
 70
     0
  9
$DIMSOXD
 70
     0
  9
$DIMSAH
 70
     0
  9
$DIMBLK1
  1

  9
$DIMBLK2
  1

  9
$DIMSTYLE
  2
ISO-25
  9
$DIMCLRD
 70
     0
  9
$DIMCLRE
 70
     0
  9
$DIMCLRT
 70
     0
  9
$DIMTFAC
 40
1.0
  9
$DIMGAP
 40
0.1524
  9
$DIMJUST
 70
     0
  9
$DIMSD1
 70
     0
  9
$DIMSD2
 70
     0
  9
$DIMTOLJ
 70
     0
  9
$DIMTZIN
 70
     0
  9
$DIMALTZ
 70
     0
  9
$DIMALTTZ
 70
     0
  9
$DIMFIT
 70
     3
  9
$DIMUPT
 70
     0
  9
$DIMUNIT
 70
     2
  9
$DIMDEC
 70
     2
  9
$DIMTDEC
 70
     2
  9
$DIMALTU
 70
     2
  9
$DIMALTTD
 70
     3
  9
$DIMTXSTY
  7
STANDARD
  9
$DIMAUNIT
 70
     0
  9
$LUNITS
 70
     2
  9
$LUPREC
 70
     2
  9
$SKETCHINC
 40
1.0
  9
$FILLETRAD
 40
10.0
  9
$AUNITS
 70
     0
  9
$AUPREC
 70
     0
  9
$MENU
  1
.
  9
$ELEVATION
 40
0.0
  9
$PELEVATION
 40
0.0
  9
$THICKNESS
 40
0.0
  9
$LIMCHECK
 70
     0
  9
$BLIPMODE
 70
     0
  9
$CHAMFERA
 40
10.0
  9
$CHAMFERB
 40
10.0
  9
$CHAMFERC
 40
20.0
  9
$CHAMFERD
 40
0.0
  9
$SKPOLY
 70
     0
  9
$TDCREATE
 40
2454418.377356771
  9
$TDUPDATE
 40
2454420.410178125
  9
$TDINDWG
 40
0.0013988426
  9
$TDUSRTIMER
 40
0.0013988426
  9
$USRTIMER
 70
     1
  9
$ANGBASE
 50
0.0
  9
$ANGDIR
 70
     0
  9
$PDMODE
 70
     0
  9
$PDSIZE
 40
-1.0
  9
$PLINEWID
 40
0.0
  9
$COORDS
 70
     1
  9
$SPLFRAME
 70
     0
  9
$SPLINETYPE
 70
     6
  9
$SPLINESEGS
 70
     8
  9
$ATTDIA
 70
     0
  9
$ATTREQ
 70
     1
  9
$HANDLING
 70
 22529
  9
$HANDSEED
  5
2FB
  9
$SURFTAB1
 70
     6
  9
$SURFTAB2
 70
     6
  9
$SURFTYPE
 70
     6
  9
$SURFU
 70
     6
  9
$SURFV
 70
     6
  9
$UCSNAME
  2

  9
$UCSORG
 10
0.0
 20
0.0
 30
0.0
  9
$UCSXDIR
 10
1.0
 20
0.0
 30
0.0
  9
$UCSYDIR
 10
0.0
 20
1.0
 30
0.0
  9
$PUCSNAME
  2

  9
$PUCSORG
 10
0.0
 20
0.0
 30
0.0
  9
$PUCSXDIR
 10
1.0
 20
0.0
 30
0.0
  9
$PUCSYDIR
 10
0.0
 20
1.0
 30
0.0
  9
$USERI1
 70
     0
  9
$USERI2
 70
     0
  9
$USERI3
 70
     0
  9
$USERI4
 70
     0
  9
$USERI5
 70
     0
  9
$USERR1
 40
0.0
  9
$USERR2
 40
0.0
  9
$USERR3
 40
0.0
  9
$USERR4
 40
0.0
  9
$USERR5
 40
0.0
  9
$WORLDVIEW
 70
     1
  9
$SHADEDGE
 70
     3
  9
$SHADEDIF
 70
    70
  9
$TILEMODE
 70
     1
  9
$MAXACTVP
 70
    64
  9
$PINSBASE
 10
0.0
 20
0.0
 30
0.0
  9
$PLIMCHECK
 70
     0
  9
$PEXTMIN
 10
1.000000000000000E+20
 20
1.000000000000000E+20
 30
1.000000000000000E+20
  9
$PEXTMAX
 10
-1.000000000000000E+20
 20
-1.000000000000000E+20
 30
-1.000000000000000E+20
  9
$PLIMMIN
 10
0.0
 20
0.0
  9
$PLIMMAX
 10
420.0
 20
297.0
  9
$UNITMODE
 70
     0
  9
$VISRETAIN
 70
     1
  9
$PLINEGEN
 70
     0
  9
$PSLTSCALE
 70
     1
  9
$TREEDEPTH
 70
  3020
  9
$PICKSTYLE
 70
     1
  9
$CMLSTYLE
  2
STANDARD
  9
$CMLJUST
 70
     0
  9
$CMLSCALE
 40
20.0
  9
$PROXYGRAPHICS
 70
     1
  9
$MEASUREMENT
 70
     1
  0
ENDSEC
  0
SECTION
  2
CLASSES
  0
CLASS
  1
ACDBDICTIONARYWDFLT
  2
AcDbDictionaryWithDefault
  3
AutoCAD 2000
 90
        0
280
     0
281
     0
  0
CLASS
  1
ACDBPLACEHOLDER
  2
AcDbPlaceHolder
  3
AutoCAD 2000
 90
        0
280
     0
281
     0
  0
CLASS
  1
LAYOUT
  2
AcDbLayout
  3
AutoCAD 2000
 90
        0
280
     0
281
     0
  0
CLASS
  1
DICTIONARYVAR
  2
AcDbDictionaryVar
  3
AutoCAD 2000
 90
        0
280
     0
281
     0
  0
CLASS
  1
LONG_TRANSACTION
  2
AcDbLongTransaction
  3
AutoCAD 2000
 90
        0
280
     0
281
     0
  0
CLASS
  1
LWPOLYLINE
  2
AcDbPolyline
  3
AutoCAD 2000
 90
        0
280
     0
281
     1
  0
CLASS
  1
HATCH
  2
AcDbHatch
  3
AutoCAD 2000
 90
        0
280
     0
281
     1
  0
CLASS
  1
XRECORD
  2
AcDbXrecord
  3
AutoCAD 2000
 90
        0
280
     0
281
     0
  0
ENDSEC
  0
SECTION
  2
TABLES
  0
TABLE
  2
VPORT
  5
8
330
0
100
AcDbSymbolTable
 70
     4
  0
VPORT
  5
2D3
330
8
100
AcDbSymbolTableRecord
100
AcDbViewportTableRecord
  2
*ACTIVE
 70
     0
 10
0.0
 20
0.0
 11
1.0
 21
1.0
 12
8.594899811624669
 22
10.60173802508709
 13
0.0
 23
0.0
 14
10.0
 24
10.0
 15
10.0
 25
10.0
 16
0.0
 26
0.0
 36
1.0
 17
0.0
 27
0.0
 37
0.0
 40
12.59580150785655
 41
1.981907894736842
 42
50.0
 43
0.0
 44
0.0
 50
0.0
 51
0.0
 71
     0
 72
  2000
 73
     1
 74
     3
 75
     0
 76
     0
 77
     0
 78
     0
  0
ENDTAB
  0
TABLE
  2
LTYPE
  5
5
330
0
100
AcDbSymbolTable
 70
     6
  0
LTYPE
  5
14
330
5
100
AcDbSymbolTableRecord
100
AcDbLinetypeTableRecord
  2
BYBLOCK
 70
     0
  3

 72
    65
 73
     0
 40
0.0
  0
LTYPE
  5
15
330
5
100
AcDbSymbolTableRecord
100
AcDbLinetypeTableRecord
  2
BYLAYER
 70
     0
  3

 72
    65
 73
     0
 40
0.0
  0
LTYPE
  5
16
330
5
100
AcDbSymbolTableRecord
100
AcDbLinetypeTableRecord
  2
CONTINUOUS
 70
     0
  3
Solid line
 72
    65
 73
     0
 40
0.0
  0
ENDTAB
  0
TABLE
  2
LAYER
  5
2
330
0
100
AcDbSymbolTable
 70
     3
  0
LAYER
  5
10
330
2
100
AcDbSymbolTableRecord
100
AcDbLayerTableRecord
  2
0
 70
     0
 62
     7
  6
CONTINUOUS
  0
ENDTAB
  0
TABLE
  2
STYLE
  5
3
330
0
100
AcDbSymbolTable
 70
     4
  0
STYLE
  5
11
330
3
100
AcDbSymbolTableRecord
100
AcDbTextStyleTableRecord
  2
STANDARD
 70
     0
 40
0.0
 41
1.0
 50
0.0
 71
     0
 42
2.5
  3
ARIAL.TTF
  4

1001
ACAD
1000
Arial
1071
       34
  0
ENDTAB
  0
TABLE
  2
VIEW
  5
6
330
0
100
AcDbSymbolTable
 70
     0
  0
ENDTAB
  0
TABLE
  2
UCS
  5
7
330
0
100
AcDbSymbolTable
 70
     0
  0
ENDTAB
  0
TABLE
  2
APPID
  5
9
330
0
100
AcDbSymbolTable
 70
     1
  0
APPID
  5
12
330
9
100
AcDbSymbolTableRecord
100
AcDbRegAppTableRecord
  2
ACAD
 70
     0
  0
ENDTAB
  0
TABLE
  2
DIMSTYLE
  5
A
330
0
100
AcDbSymbolTable
 70
     6
  0
DIMSTYLE
105
27
330
A
100
AcDbSymbolTableRecord
100
AcDbDimStyleTableRecord
  2
ISO-25
 70
     0
  3

  4

  5

  6

  7

 40
1.0
 41
2.5
 42
0.625
 43
3.75
 44
1.25
 45
0.0
 46
0.0
 47
0.0
 48
0.0
140
2.5
141
2.5
142
0.0
143
0.03937007874016
144
1.0
145
0.0
146
1.0
147
0.625
 71
     0
 72
     0
 73
     0
 74
     0
 75
     0
 76
     0
 77
     1
 78
     8
170
     0
171
     3
172
     1
173
     0
174
     0
175
     0
176
     0
177
     0
178
     0
270
     2
271
     2
272
     2
273
     2
274
     3
340
11
275
     0
280
     0
281
     0
282
     0
283
     0
284
     8
285
     0
286
     0
287
     3
288
     0
  0
ENDTAB
  0
TABLE
  2
BLOCK_RECORD
  5
1
330
0
100
AcDbSymbolTable
 70
    24
  0
BLOCK_RECORD
  5
1F
102
{ACAD_XDICTIONARY
360
2F7
102
}
330
1
100
AcDbSymbolTableRecord
100
AcDbBlockTableRecord
  2
*MODEL_SPACE
  0
BLOCK_RECORD
  5
1B
102
{ACAD_XDICTIONARY
360
2F5
102
}
330
1
100
AcDbSymbolTableRecord
100
AcDbBlockTableRecord
  2
*PAPER_SPACE
  0
ENDTAB
  0
ENDSEC
  0
SECTION
  2
BLOCKS
  0
BLOCK
  5
20
330
1F
100
AcDbEntity
  8
0
100
AcDbBlockBegin
  2
*MODEL_SPACE
 70
     0
 10
0.0
 20
0.0
 30
0.0
  3
*MODEL_SPACE
  1

  0
ENDBLK
  5
21
330
1F
100
AcDbEntity
  8
0
100
AcDbBlockEnd
  0
BLOCK
  5
1C
330
1B
100
AcDbEntity
 67
     1
  8
0
100
AcDbBlockBegin
  2
*PAPER_SPACE
 70
     0
 10
0.0
 20
0.0
 30
0.0
  3
*PAPER_SPACE
  1

  0
ENDBLK
  5
1D
330
1B
100
AcDbEntity
 67
     1
  8
0
100
AcDbBlockEnd
  0
ENDSEC
  0
SECTION
  2
ENTITIES
  0
LINE
  5
DF
330
1F
100
AcDbEntity
  8
0
100
AcDbLine
 10
2.595435996592921
 20
11.50426680224513
 30
0.0
 11
14.59543599659292
 21
11.50426680224513
 31
0.0
  0
LINE
  5
E0
330
1F
100
AcDbEntity
  8
0
100
AcDbLine
 10
13.68311353539091
 20
12.03887603974354
 30
0.0
 11
3.507758457794934
 21
12.03887603974354
 31
0.0
  0
LINE
  5
E1
330
1F
100
AcDbEntity
  8
0
100
AcDbLine
 10
3.133790134458581
 20
12.42262916355448
 30
0.0
 11
3.133790134458579
 21
15.91923777426911
 31
0.0
  0
LINE
  5
E2
330
1F
100
AcDbEntity
  8
0
100
AcDbLine
 10
2.595435996592921
 20
16.83760013557846
 30
0.0
 11
2.595435996592921
 21
11.50426680224513
 31
0.0
  0
LINE
  5
E3
330
1F
100
AcDbEntity
  8
0
100
AcDbLine
 10
14.59543599659292
 20
11.50426680224513
 30
0.0
 11
14.59543599659292
 21
16.83760013557846
 31
0.0
  0
LINE
  5
E4
330
1F
100
AcDbEntity
  8
0
100
AcDbLine
 10
14.05708185872723
 20
15.91923777426906
 30
0.0
 11
14.05708185872723
 21
12.42262916355453
 31
0.0
  0
LINE
  5
E5
330
1F
100
AcDbEntity
  8
0
100
AcDbLine
 10
3.507758457794933
 20
16.30299089808005
 30
0.0
 11
13.6831135353909
 21
16.30299089808005
 31
0.0
  0
LINE
  5
E6
330
1F
100
AcDbEntity
  8
0
100
AcDbLine
 10
14.59543599659292
 20
16.83760013557846
 30
0.0
 11
2.595435996592921
 21
16.83760013557846
 31
0.0
  0
LWPOLYLINE
  5
E7
330
1F
100
AcDbEntity
  8
0
100
AcDbPolyline
 90
        3
 70
   128
 43
0.0
 10
3.507758457767195
 20
12.03887603973482
 10
3.285463893846723
 20
12.03882349766514
 10
3.133101228435546
 20
12.03870868385508
  0
LWPOLYLINE
  5
E8
330
1F
100
AcDbEntity
  8
0
100
AcDbPolyline
 90
        3
 70
   128
 43
0.0
 10
3.133101228435546
 20
12.03870868385508
 10
3.133617156999831
 20
12.21730827123921
 10
3.133790134458581
 20
12.42262916352439
  0
LWPOLYLINE
  5
E9
330
1F
100
AcDbEntity
  8
0
100
AcDbPolyline
 90
        3
 70
   128
 43
0.0
 10
14.05777076475027
 20
16.30315825396851
 10
14.05725483618598
 20
16.12455866658436
 10
14.05708185872723
 20
15.91923777429915
  0
LWPOLYLINE
  5
EA
330
1F
100
AcDbEntity
  8
0
100
AcDbPolyline
 90
        3
 70
   128
 43
0.0
 10
13.68311353541864
 20
16.30299089808878
 10
13.90540809933911
 20
16.30304344015846
 10
14.05777076475027
 20
16.30315825396851
  0
LWPOLYLINE
  5
EB
330
1F
100
AcDbEntity
  8
0
100
AcDbPolyline
 90
        3
 70
   128
 43
0.0
 10
14.05708185873817
 20
12.42262916352448
 10
14.05725482471101
 20
12.21731464955147
 10
14.05777076475027
 20
12.03870868385508
  0
LWPOLYLINE
  5
EC
330
1F
100
AcDbEntity
  8
0
100
AcDbPolyline
 90
        3
 70
   128
 43
0.0
 10
14.05777076475027
 20
12.03870868385508
 10
13.90541572532044
 20
12.03882349378357
 10
13.68311353541866
 20
12.03887603974354
  0
LWPOLYLINE
  5
ED
330
1F
100
AcDbEntity
  8
0
100
AcDbPolyline
 90
        3
 70
   128
 43
0.0
 10
3.133101228435549
 20
16.30315825396851
 10
3.285456267865406
 20
16.30304344404002
 10
3.507758457767184
 20
16.30299089808005
  0
LWPOLYLINE
  5
EE
330
1F
100
AcDbEntity
  8
0
100
AcDbPolyline
 90
        3
 70
   128
 43
0.0
 10
3.133790134447643
 20
15.91923777429916
 10
3.133617168474797
 20
16.12455228827215
 10
3.133101228435549
 20
16.30315825396851
  0
LINE
  5
EF
330
1F
100
AcDbEntity
  8
0
100
AcDbLine
 10
3.133101228435546
 20
16.30315825396851
 30
0.0
 11
4.419335266342597
 21
15.97400637679816
 31
0.0
  0
LWPOLYLINE
  5
F0
330
1F
100
AcDbEntity
  8
0
100
AcDbPolyline
 90
        9
 70
   128
 43
0.0
 10
4.42676333414363
 20
12.36976143006513
 10
4.427252830120089
 20
12.82027993874402
 10
4.42731039197756
 20
13.27080001414213
 10
4.426931608501345
 20
13.72132908261684
 10
4.426131728534323
 20
14.17185485897976
 10
4.424934722757033
 20
14.62240037524797
 10
4.423376675109797
 20
15.07293928012424
 10
4.421496694931457
 20
15.52347661854909
 10
4.419335266342597
 20
15.97400637679816
  0
LINE
  5
F1
330
1F
100
AcDbEntity
  8
0
100
AcDbLine
 10
3.133101228435546
 20
12.03870868385508
 30
0.0
 11
4.42676333414363
 21
12.36976143006513
 31
0.0
  0
LINE
  5
F2
330
1F
100
AcDbEntity
  8
0
100
AcDbLine
 10
14.05777076475027
 20
12.03870868385508
 30
0.0
 11
12.76410865903464
 21
12.36976143006515
 31
0.0
  0
LWPOLYLINE
  5
F3
330
1F
100
AcDbEntity
  8
0
100
AcDbPolyline
 90
        7
 70
   128
 43
0.0
 10
12.77153672683573
 20
15.97400637679814
 10
12.76871595088767
 20
15.37334351866294
 10
12.76641928738015
 20
14.77266663889432
 10
12.76474054025892
 20
14.17197855439249
 10
12.7637736862401
 20
13.5712424896074
 10
12.76355881717888
 20
12.97050056362663
 10
12.76410865903464
 20
12.36976143006515
  0
LINE
  5
F4
330
1F
100
AcDbEntity
  8
0
100
AcDbLine
 10
14.05777076475027
 20
16.30315825396851
 30
0.0
 11
12.77153672683573
 21
15.97400637679814
 31
0.0
  0
LWPOLYLINE
  5
F5
330
1F
100
AcDbEntity
  8
0
100
AcDbPolyline
 90
       17
 70
   128
 43
0.0
 10
12.76410865903464
 20
12.36976143006515
 10
11.72151663640105
 20
12.37209310943127
 10
10.67891631314153
 20
12.37437640717158
 10
10.15760739360716
 20
12.3754814311665
 10
9.636286932509559
 20
12.3765129095794
 10
9.375606507673717
 20
12.37698091386514
 10
9.114914618128491
 20
12.37737668583521
 10
8.85421383834786
 20
12.37765020109981
 10
8.593506742805796
 20
12.37775143526908
 10
8.333073087198526
 20
12.37764759825791
 10
8.07264584578078
 20
12.3773724746364
 10
7.812227500646631
 20
12.37697590697124
 10
7.551820533890158
 20
12.37650773782914
 10
7.030971901152044
 20
12.3754766682389
 10
6.510134746916378
 20
12.37437248799911
 10
5.468444902710734
 20
12.37209107591077
 10
4.42676333414363
 20
12.36976143006513
  0
LWPOLYLINE
  5
F6
330
1F
100
AcDbEntity
  8
0
100
AcDbPolyline
 90
      100
 70
   128
 43
0.0
 10
8.595435996592922
 20
12.05975463490449
 10
8.606429476000061
 20
12.05979414011808
 10
8.617378688545706
 20
12.05991249668528
 10
8.628239545615393
 20
12.06010922802597
 10
8.638968314370975
 20
12.06038354197249
 10
8.649521793847327
 20
12.06073433395938
 10
8.659857488907379
 20
12.06116019147112
 10
8.669933781355044
 20
12.06165939972982
 10
8.679710097517002
 20
12.06222994860001
 10
8.68914707161856
 20
12.06286954068277
 10
8.698206704295726
 20
12.06357560056651
 10
8.706852515605255
 20
12.06434528519729
 10
8.715049691916489
 20
12.06517549532674
 10
8.72276522609356
 20
12.06606288799171
 10
8.729968050403492
 20
12.06700388997512
 10
8.736629161614981
 20
12.0679947121941
 10
8.742721737784171
 20
12.0690313649573
 10
8.74822124625717
 20
12.0701096740299
 10
8.753105542454372
 20
12.07122529744186
 10
8.757354959038874
 20
12.07237374297146
 10
8.760952385109895
 20
12.07355038623387
 10
8.763883335102336
 20
12.07475048930197
 10
8.766136007115038
 20
12.07596921978427
 10
8.767701330432872
 20
12.07720167028327
 10
8.76857300205131
 20
12.07844287815579
 10
8.768747512056393
 20
12.07968784549581
 10
8.768224157757925
 20
12.08093155925924
 10
8.767005046518951
 20
12.08216901144973
 10
8.76509508727015
 20
12.08339521928405
 10
8.762501970743311
 20
12.08460524525605
 10
8.759236138503464
 20
12.08579421701819
 10
8.755310740904382
 20
12.08695734700084
 10
8.750741584136752
 20
12.08808995169008
 10
8.745547066582224
 20
12.08918747048656
 10
8.739748104729615
 20
12.09024548406946
 10
8.733368048951598
 20
12.09125973219149
 10
8.726432589480994
 20
12.09222613083345
 10
8.718969652965258
 20
12.09314078864908
 10
8.711009290015745
 20
12.09400002263418
 10
8.702583554204492
 20
12.09480037295676
 10
8.693726372995801
 20
12.09553861688855
 10
8.684473411132312
 20
12.0962117817818
 10
8.674861927025672
 20
12.09681715703905
 10
8.664930622730066
 20
12.09735230502783
 10
8.654719488102703
 20
12.09781507089605
 10
8.644269639778769
 20
12.0982035912489
 10
8.633623155609255
 20
12.09851630165204
 10
8.622822905228302
 20
12.09875194293104
 10
8.611912377432313
 20
12.09890956624164
 10
8.600935505065919
 20
12.09898853689041
 10
8.589936488119922
 20
12.09898853689041
 10
8.578959615753529
 20
12.09890956624164
 10
8.56804908795754
 20
12.09875194293104
 10
8.557248837576587
 20
12.09851630165204
 10
8.546602353407074
 20
12.0982035912489
 10
8.536152505083137
 20
12.09781507089605
 10
8.525941370455774
 20
12.09735230502783
 10
8.516010066160168
 20
12.09681715703905
 10
8.506398582053529
 20
12.0962117817818
 10
8.497145620190039
 20
12.09553861688855
 10
8.488288438981349
 20
12.09480037295676
 10
8.479862703170097
 20
12.09400002263418
 10
8.471902340220584
 20
12.09314078864908
 10
8.464439403704847
 20
12.09222613083345
 10
8.457503944234243
 20
12.09125973219149
 10
8.451123888456226
 20
12.09024548406946
 10
8.445324926603618
 20
12.08918747048656
 10
8.440130409049089
 20
12.08808995169008
 10
8.435561252281459
 20
12.08695734700084
 10
8.431635854682378
 20
12.08579421701819
 10
8.42837002244253
 20
12.08460524525605
 10
8.425776905915691
 20
12.08339521928405
 10
8.423866946666892
 20
12.08216901144973
 10
8.422647835427916
 20
12.08093155925924
 10
8.422124481129449
 20
12.07968784549581
 10
8.422298991134532
 20
12.07844287815579
 10
8.423170662752969
 20
12.07720167028327
 10
8.424735986070805
 20
12.07596921978427
 10
8.426988658083507
 20
12.07475048930197
 10
8.429919608075948
 20
12.07355038623387
 10
8.433517034146969
 20
12.07237374297146
 10
8.437766450731471
 20
12.07122529744186
 10
8.442650746928674
 20
12.0701096740299
 10
8.448150255401673
 20
12.0690313649573
 10
8.454242831570864
 20
12.0679947121941
 10
8.460903942782351
 20
12.06700388997512
 10
8.468106767092283
 20
12.06606288799171
 10
8.475822301269356
 20
12.06517549532674
 10
8.48401947758059
 20
12.06434528519728
 10
8.492665288890117
 20
12.06357560056651
 10
8.501724921567285
 20
12.06286954068277
 10
8.511161895668841
 20
12.06222994860001
 10
8.520938211830801
 20
12.06165939972982
 10
8.531014504278466
 20
12.06116019147112
 10
8.54135019933852
 20
12.06073433395937
 10
8.55190367881487
 20
12.06038354197249
 10
8.562632447570454
 20
12.06010922802597
 10
8.573493304640141
 20
12.05991249668528
 10
8.584442517185786
 20
12.05979414011808
 10
8.595435996592922
 20
12.05975463490449
  0
LWPOLYLINE
  5
F7
330
1F
100
AcDbEntity
  8
0
100
AcDbPolyline
 90
       14
 70
   128
 43
0.0
 10
4.419335266342597
 20
15.97400637679816
 10
5.237320765359836
 20
15.97251822686994
 10
6.055326993052053
 20
15.97118269921947
 10
6.873358297873243
 20
15.9700786595687
 10
7.364237549428076
 20
15.96957323079139
 10
7.855130839142873
 20
15.96921986346388
 10
8.346031522622272
 20
15.96903117221017
 10
8.836932955470913
 20
15.96901977165422
 10
9.327828493293434
 20
15.96919827642001
 10
9.901801447939499
 20
15.96963577277325
 10
10.47576173612725
 20
15.97027043377354
 10
11.04970656967233
 20
15.97105949539204
 10
11.91063283464129
 20
15.97244773229447
 10
12.77153672683573
 20
15.97400637679814
  0
ARC
  5
F8
330
1F
100
AcDbEntity
  8
0
100
AcDbCircle
 10
8.612479359667679
 20
11.1840379445451
 30
0.0
 40
0.8952512803963406
100
AcDbArc
 50
81.49357002786667
 51
91.09083537737935
  0
ARC
  5
F9
330
1F
100
AcDbEntity
  8
0
100
AcDbCircle
 10
8.579176668718494
 20
11.17193933754014
 30
0.0
 40
0.9073333355360315
100
AcDbArc
 50
88.9732100708143
 51
98.44238452393842
  0
CIRCLE
  5
FA
330
1F
100
AcDbEntity
  8
0
100
AcDbCircle
 10
8.595435996592922
 20
13.10426680224513
 30
0.0
 40
0.3665179007108019
  0
CIRCLE
  5
FB
330
1F
100
AcDbEntity
  8
0
100
AcDbCircle
 10
8.595435996592922
 20
13.10426680224513
 30
0.0
 40
0.1733333333333338
  0
LINE
  5
18C
330
1F
100
AcDbEntity
  8
0
100
AcDbLine
 10
8.031999519096377
 20
4.365574963967951
 30
0.0
 11
9.158872474089466
 21
4.365574963967951
 31
0.0
  0
LINE
  5
18D
330
1F
100
AcDbEntity
  8
0
100
AcDbLine
 10
12.31967304247802
 20
4.428714861248104
 30
0.0
 11
9.158872474089466
 21
4.365574963967951
 31
0.0
  0
LINE
  5
18E
330
1F
100
AcDbEntity
  8
0
100
AcDbLine
 10
9.05539668153983
 20
4.520628313728066
 30
0.0
 11
9.158872474089466
 21
4.365574963967951
 31
0.0
  0
LINE
  5
18F
330
1F
100
AcDbEntity
  8
0
100
AcDbLine
 10
12.41904669918699
 20
4.587901314081505
 30
0.0
 11
12.31967304247802
 21
4.428714861248104
 31
0.0
  0
LINE
  5
190
330
1F
100
AcDbEntity
  8
0
100
AcDbLine
 10
4.756969529790857
 20
4.588198429365667
 30
0.0
 11
4.871198950707832
 21
4.42871486124867
 31
0.0
  0
LINE
  5
191
330
1F
100
AcDbEntity
  8
0
100
AcDbLine
 10
8.147474312426895
 20
4.52038833371238
 30
0.0
 11
8.031999519096377
 21
4.365574963967951
 31
0.0
  0
LINE
  5
192
330
1F
100
AcDbEntity
  8
0
100
AcDbLine
 10
4.871198950707832
 20
4.42871486124867
 30
0.0
 11
8.031999519096377
 21
4.365574963967951
 31
0.0
  0
LINE
  5
193
330
1F
100
AcDbEntity
  8
0
100
AcDbLine
 10
4.414184445977348
 20
4.595054131041371
 30
0.0
 11
8.221476132981708
 21
4.518908297301284
 31
0.0
  0
LINE
  5
194
330
1F
100
AcDbEntity
  8
0
100
AcDbLine
 10
8.969395860204135
 20
4.518908297301284
 30
0.0
 11
12.77668756786596
 21
4.595054131454521
 31
0.0
  0
ARC
  5
195
330
1F
100
AcDbEntity
  8
0
100
AcDbCircle
 10
8.595435996592922
 20
4.970939046460745
 30
0.0
 40
0.5866666666666676
100
AcDbArc
 50
287.1847959010884
 51
309.6005648414014
  0
ARC
  5
196
330
1F
100
AcDbEntity
  8
0
100
AcDbCircle
 10
8.595435996592922
 20
4.970939046460745
 30
0.0
 40
0.5866666666666675
100
AcDbArc
 50
230.3994351586003
 51
252.8152040989132
  0
LINE
  5
197
330
1F
100
AcDbEntity
  8
0
100
AcDbLine
 10
2.595435996592921
 20
7.531433099629141
 30
0.0
 11
2.595435996592921
 21
7.298099766295806
 31
0.0
  0
LINE
  5
198
330
1F
100
AcDbEntity
  8
0
100
AcDbLine
 10
14.59543599659292
 20
7.531433099629141
 30
0.0
 11
14.59543599659292
 21
7.298099766295806
 31
0.0
  0
LINE
  5
199
330
1F
100
AcDbEntity
  8
0
100
AcDbLine
 10
14.59543599659292
 20
7.298099766295806
 30
0.0
 11
2.595435996592921
 21
7.298099766295806
 31
0.0
  0
LINE
  5
19A
330
1F
100
AcDbEntity
  8
0
100
AcDbLine
 10
2.595435996592921
 20
7.531433099629141
 30
0.0
 11
14.59543599659292
 21
7.531433099629141
 31
0.0
  0
LWPOLYLINE
  5
19B
330
1F
100
AcDbEntity
  8
0
100
AcDbPolyline
 90
       17
 70
   128
 43
0.0
 10
12.77723805260366
 20
4.596408067913253
 10
11.73135625992528
 20
4.575895070681859
 10
10.68546583131193
 20
4.555824514752739
 10
10.16251147082678
 20
4.546123947078756
 10
9.639545254614549
 20
4.537089448828393
 10
9.378041626518806
 20
4.533006483257899
 10
9.116526547659344
 20
4.529565586903426
 10
8.855002674886188
 20
4.527193579068323
 10
8.593472665049361
 20
4.526317279055945
 10
8.332220737043419
 20
4.527216424158391
 10
8.070975044079679
 20
4.529602691468315
 10
7.80973815155343
 20
4.533050765896605
 10
7.548512624859966
 20
4.537135332354154
 10
7.026026921135655
 20
4.546166335243384
 10
6.503553008083438
 20
4.555859440113
 10
5.458589169516473
 20
4.575913218032706
 10
4.413633940574579
 20
4.596408067913404
  0
LINE
  5
19C
330
1F
100
AcDbEntity
  8
0
100
AcDbLine
 10
3.210763297594792
 20
7.298099766295806
 30
0.0
 11
4.413633940574579
 21
4.596408067913404
 31
0.0
  0
LINE
  5
19D
330
1F
100
AcDbEntity
  8
0
100
AcDbLine
 10
13.98010869559047
 20
7.298099766295806
 30
0.0
 11
12.77723805260366
 21
4.596408067913253
 31
0.0
  0
ARC
  5
19E
330
1F
100
AcDbEntity
  8
0
100
AcDbCircle
 10
8.596514636365396
 20
7.162365612082393
 30
0.0
 40
0.1720857455559449
100
AcDbArc
 50
269.6408655983428
 51
52.06967461426184
  0
ARC
  5
19F
330
1F
100
AcDbEntity
  8
0
100
AcDbCircle
 10
8.594357356820443
 20
7.162365612082393
 30
0.0
 40
0.172085745555944
100
AcDbArc
 50
127.930325385737
 51
270.3591344016599
  0
ARC
  5
1A0
330
1F
100
AcDbEntity
  8
0
100
AcDbCircle
 10
8.595435996592922
 20
7.16565157623544
 30
0.0
 40
0.173341326026987
100
AcDbArc
 50
180.666766828169
 51
359.3332331718325
  0
LINE
  5
1A1
330
1F
100
AcDbEntity
  8
0
100
AcDbLine
 10
8.221476132981708
 20
4.518908297301284
 30
0.0
 11
8.969395860204135
 21
4.518908297301284
 31
0.0
  0
LINE
  5
1A2
330
1F
100
AcDbEntity
  8
0
100
AcDbLine
 10
4.413633940574579
 20
4.596408067913404
 30
0.0
 11
4.414186694597539
 21
4.595166562050911
 31
0.0
  0
LINE
  5
1A3
330
1F
100
AcDbEntity
  8
0
100
AcDbLine
 10
12.77668531836529
 20
4.59516660648768
 30
0.0
 11
12.77723805260366
 21
4.596408067913253
 31
0.0
  0
LINE
  5
1A4
330
1F
100
AcDbEntity
  8
0
100
AcDbLine
 10
8.595435996592922
 20
4.410463058274513
 30
0.0
 11
8.768769329926255
 21
4.410463058274513
 31
0.0
  0
LINE
  5
1A5
330
1F
100
AcDbEntity
  8
0
100
AcDbLine
 10
8.422102663259588
 20
4.410463058274513
 30
0.0
 11
8.595435996592922
 21
4.410463058274513
 31
0.0
  0
ENDSEC
  0
SECTION
  2
OBJECTS
  0
DICTIONARY
  5
C
330
0
100
AcDbDictionary
  3
ACAD_GROUP
350
D
  3
ACAD_LAYOUT
350
1A
  3
ACAD_MLINESTYLE
350
17
  3
ACAD_PLOTSETTINGS
350
19
  3
ACAD_PLOTSTYLENAME
350
E
  3
ACDBHEADERROUNDTRIPXREC
350
2D4
  3
ACDBVARIABLEDICTIONARY
350
2D1
  0
DICTIONARY
  5
2F7
330
1F
100
AcDbDictionary
280
     1
  3
ACAD_LAYOUTSELFREF
360
2F8
  0
DICTIONARY
  5
2F5
330
1B
100
AcDbDictionary
280
     1
  3
ACAD_LAYOUTSELFREF
360
2F6
  0
DICTIONARY
  5
D
102
{ACAD_REACTORS
330
C
102
}
330
C
100
AcDbDictionary
  0
DICTIONARY
  5
1A
102
{ACAD_REACTORS
330
C
102
}
330
C
100
AcDbDictionary
  0
DICTIONARY
  5
17
102
{ACAD_REACTORS
330
C
102
}
330
C
100
AcDbDictionary
  3
STANDARD
350
18
  0
DICTIONARY
  5
19
102
{ACAD_REACTORS
330
C
102
}
330
C
100
AcDbDictionary
  0
ACDBDICTIONARYWDFLT
  5
E
102
{ACAD_REACTORS
330
C
102
}
330
C
100
AcDbDictionary
281
     1
  3
Normal
350
F
100
AcDbDictionaryWithDefault
340
F
  0
DICTIONARY
  5
2D4
102
{ACAD_REACTORS
330
C
102
}
330
C
100
AcDbDictionary
  3
CEPSNTYPE
350
2DE
  3
DIMSTYLEDATA
350
2E2
  3
FINGERPRINTGUID
350
2DF
  3
HYPERLINKBASE
350
2D7
  3
INSUNITS
350
2DD
  3
LAYOUTDICT
350
2D9
  3
LWETCUNION
350
2DC
  3
PLOTSETDICT
350
2DA
  3
PLOTSTYLNAMDICT
350
2DB
  3
PSVPSCALE
350
2E1
  3
PUCSBASE
350
2E5
  3
PUCSORGBACK
350
2EB
  3
PUCSORGBOTTOM
350
2E7
  3
PUCSORGFRONT
350
2EA
  3
PUCSORGLEFT
350
2E8
  3
PUCSORGRIGHT
350
2E9
  3
PUCSORGTOP
350
2E6
  3
PUCSORTHOREF
350
2E3
  3
PUCSORTHOVIEW
350
2E4
  3
STYLESHEET
350
2D8
  3
TSTACKALIGN
350
2D5
  3
TSTACKSIZE
350
2D6
  3
UCSBASE
350
2EE
  3
UCSORGBACK
350
2F4
  3
UCSORGBOTTOM
350
2F0
  3
UCSORGFRONT
350
2F3
  3
UCSORGLEFT
350
2F1
  3
UCSORGRIGHT
350
2F2
  3
UCSORGTOP
350
2EF
  3
UCSORTHOREF
350
2EC
  3
UCSORTHOVIEW
350
2ED
  3
VERSIONGUID
350
2E0
  0
DICTIONARY
  5
2D1
102
{ACAD_REACTORS
330
C
102
}
330
C
100
AcDbDictionary
  3
DIMASSOC
350
2D2
  0
XRECORD
  5
2F8
102
{ACAD_REACTORS
330
2F7
102
}
330
2F7
100
AcDbXrecord
340
1F
  0
XRECORD
  5
2F6
102
{ACAD_REACTORS
330
2F5
102
}
330
2F5
100
AcDbXrecord
340
1B
  0
MLINESTYLE
  5
18
102
{ACAD_REACTORS
330
17
102
}
330
17
100
AcDbMlineStyle
  2
STANDARD
 70
     0
  3

 62
   256
 51
90.0
 52
90.0
 71
     2
 49
0.5
 62
   256
  6
BYLAYER
 49
-0.5
 62
   256
  6
BYLAYER
  0
ACDBPLACEHOLDER
  5
F
102
{ACAD_REACTORS
330
E
102
}
330
E
100
AcDbPlaceHolder
280
     0
  0
XRECORD
  5
2DE
102
{ACAD_REACTORS
330
2D4
102
}
330
2D4
100
AcDbXrecord
 90
        0
  0
XRECORD
  5
2E2
102
{ACAD_REACTORS
330
2D4
102
}
330
2D4
100
AcDbXrecord
1000
DSTYLE
1002
{
1070
   278
 70
    44
1002
}
  0
XRECORD
  5
2DF
102
{ACAD_REACTORS
330
2D4
102
}
330
2D4
100
AcDbXrecord
  1
{158E5EC6-FAE4-4A23-A7C3-4009882BDD23}
  0
XRECORD
  5
2D7
102
{ACAD_REACTORS
330
2D4
102
}
330
2D4
100
AcDbXrecord
  1

  0
XRECORD
  5
2DD
102
{ACAD_REACTORS
330
2D4
102
}
330
2D4
100
AcDbXrecord
 90
        4
  0
XRECORD
  5
2D9
102
{ACAD_REACTORS
330
2D4
102
}
330
2D4
100
AcDbXrecord
340
1A
  0
XRECORD
  5
2DC
102
{ACAD_REACTORS
330
2D4
102
}
330
2D4
100
AcDbXrecord
 90
    10781
  0
XRECORD
  5
2DA
102
{ACAD_REACTORS
330
2D4
102
}
330
2D4
100
AcDbXrecord
340
19
  0
XRECORD
  5
2DB
102
{ACAD_REACTORS
330
2D4
102
}
330
2D4
100
AcDbXrecord
340
E
  0
XRECORD
  5
2E1
102
{ACAD_REACTORS
330
2D4
102
}
330
2D4
100
AcDbXrecord
 40
0.0
  0
XRECORD
  5
2E5
102
{ACAD_REACTORS
330
2D4
102
}
330
2D4
100
AcDbXrecord
340
0
  0
XRECORD
  5
2EB
102
{ACAD_REACTORS
330
2D4
102
}
330
2D4
100
AcDbXrecord
 10
0.0
 20
0.0
 30
0.0
  0
XRECORD
  5
2E7
102
{ACAD_REACTORS
330
2D4
102
}
330
2D4
100
AcDbXrecord
 10
0.0
 20
0.0
 30
0.0
  0
XRECORD
  5
2EA
102
{ACAD_REACTORS
330
2D4
102
}
330
2D4
100
AcDbXrecord
 10
0.0
 20
0.0
 30
0.0
  0
XRECORD
  5
2E8
102
{ACAD_REACTORS
330
2D4
102
}
330
2D4
100
AcDbXrecord
 10
0.0
 20
0.0
 30
0.0
  0
XRECORD
  5
2E9
102
{ACAD_REACTORS
330
2D4
102
}
330
2D4
100
AcDbXrecord
 10
0.0
 20
0.0
 30
0.0
  0
XRECORD
  5
2E6
102
{ACAD_REACTORS
330
2D4
102
}
330
2D4
100
AcDbXrecord
 10
0.0
 20
0.0
 30
0.0
  0
XRECORD
  5
2E3
102
{ACAD_REACTORS
330
2D4
102
}
330
2D4
100
AcDbXrecord
340
0
  0
XRECORD
  5
2E4
102
{ACAD_REACTORS
330
2D4
102
}
330
2D4
100
AcDbXrecord
 70
     0
  0
XRECORD
  5
2D8
102
{ACAD_REACTORS
330
2D4
102
}
330
2D4
100
AcDbXrecord
  1

  0
XRECORD
  5
2D5
102
{ACAD_REACTORS
330
2D4
102
}
330
2D4
100
AcDbXrecord
 90
        1
  0
XRECORD
  5
2D6
102
{ACAD_REACTORS
330
2D4
102
}
330
2D4
100
AcDbXrecord
 90
       70
  0
XRECORD
  5
2EE
102
{ACAD_REACTORS
330
2D4
102
}
330
2D4
100
AcDbXrecord
340
0
  0
XRECORD
  5
2F4
102
{ACAD_REACTORS
330
2D4
102
}
330
2D4
100
AcDbXrecord
 10
0.0
 20
0.0
 30
0.0
  0
XRECORD
  5
2F0
102
{ACAD_REACTORS
330
2D4
102
}
330
2D4
100
AcDbXrecord
 10
0.0
 20
0.0
 30
0.0
  0
XRECORD
  5
2F3
102
{ACAD_REACTORS
330
2D4
102
}
330
2D4
100
AcDbXrecord
 10
0.0
 20
0.0
 30
0.0
  0
XRECORD
  5
2F1
102
{ACAD_REACTORS
330
2D4
102
}
330
2D4
100
AcDbXrecord
 10
0.0
 20
0.0
 30
0.0
  0
XRECORD
  5
2F2
102
{ACAD_REACTORS
330
2D4
102
}
330
2D4
100
AcDbXrecord
 10
0.0
 20
0.0
 30
0.0
  0
XRECORD
  5
2EF
102
{ACAD_REACTORS
330
2D4
102
}
330
2D4
100
AcDbXrecord
 10
0.0
 20
0.0
 30
0.0
  0
XRECORD
  5
2EC
102
{ACAD_REACTORS
330
2D4
102
}
330
2D4
100
AcDbXrecord
340
0
  0
XRECORD
  5
2ED
102
{ACAD_REACTORS
330
2D4
102
}
330
2D4
100
AcDbXrecord
 70
     0
  0
XRECORD
  5
2E0
102
{ACAD_REACTORS
330
2D4
102
}
330
2D4
100
AcDbXrecord
  1
{847A4506-336B-4136-8664-E3BB4E47EC29}
  0
DICTIONARYVAR
  5
2D2
102
{ACAD_REACTORS
330
2D1
102
}
330
2D1
100
DictionaryVariables
280
     0
  1
1
  0
ENDSEC
  0
EOF
