  0
SECTION
  2
HEADER
  9
$ACADVER
  1
AC1014
  9
$ACADMAINTVER
 70
     9
  9
$DWGCODEPAGE
  3
ANSI_1250
  9
$INSBASE
 10
0.0
 20
0.0
 30
0.0
  9
$EXTMIN
 10
3.05789440817763
 20
5.117621709520758
 30
0.0
  9
$EXTMAX
 10
12.05789440817763
 20
17.50047181719074
 30
0.0
  9
$LIMMIN
 10
0.0
 20
0.0
  9
$LIMMAX
 10
0.0
 20
0.0
  9
$ORTHOMODE
 70
     0
  9
$REGENMODE
 70
     1
  9
$FILLMODE
 70
     1
  9
$QTEXTMODE
 70
     0
  9
$MIRRTEXT
 70
     1
  9
$DRAGMODE
 70
     2
  9
$LTSCALE
 40
1.0
  9
$OSMODE
 70
  3007
  9
$ATTMODE
 70
     1
  9
$TEXTSIZE
 40
2.5
  9
$TRACEWID
 40
1.0
  9
$TEXTSTYLE
  7
STANDARD
  9
$CLAYER
  8
0
  9
$CELTYPE
  6
BYLAYER
  9
$CECOLOR
 62
   256
  9
$CELTSCALE
 40
1.0
  9
$DELOBJ
 70
     1
  9
$DISPSILH
 70
     0
  9
$DIMSCALE
 40
1.0
  9
$DIMASZ
 40
0.3
  9
$DIMEXO
 40
0.1
  9
$DIMDLI
 40
3.75
  9
$DIMRND
 40
0.0
  9
$DIMDLE
 40
0.0
  9
$DIMEXE
 40
0.1
  9
$DIMTP
 40
0.0
  9
$DIMTM
 40
0.0
  9
$DIMTXT
 40
0.2822222222222222
  9
$DIMCEN
 40
2.5
  9
$DIMTSZ
 40
0.0
  9
$DIMTOL
 70
     0
  9
$DIMLIM
 70
     0
  9
$DIMTIH
 70
     1
  9
$DIMTOH
 70
     1
  9
$DIMSE1
 70
     0
  9
$DIMSE2
 70
     0
  9
$DIMTAD
 70
     1
  9
$DIMZIN
 70
     0
  9
$DIMBLK
  1

  9
$DIMASO
 70
     1
  9
$DIMSHO
 70
     1
  9
$DIMPOST
  1

  9
$DIMAPOST
  1

  9
$DIMALT
 70
     0
  9
$DIMALTD
 70
     3
  9
$DIMALTF
 40
0.3937007874015748
  9
$DIMLFAC
 40
20.0
  9
$DIMTOFL
 70
     1
  9
$DIMTVP
 40
0.0
  9
$DIMTIX
 70
     0
  9
$DIMSOXD
 70
     0
  9
$DIMSAH
 70
     0
  9
$DIMBLK1
  1

  9
$DIMBLK2
  1

  9
$DIMSTYLE
  2
ISO-25
  9
$DIMCLRD
 70
     0
  9
$DIMCLRE
 70
     0
  9
$DIMCLRT
 70
     0
  9
$DIMTFAC
 40
1.0
  9
$DIMGAP
 40
0.1524
  9
$DIMJUST
 70
     0
  9
$DIMSD1
 70
     0
  9
$DIMSD2
 70
     0
  9
$DIMTOLJ
 70
     0
  9
$DIMTZIN
 70
     0
  9
$DIMALTZ
 70
     0
  9
$DIMALTTZ
 70
     0
  9
$DIMFIT
 70
     3
  9
$DIMUPT
 70
     0
  9
$DIMUNIT
 70
     2
  9
$DIMDEC
 70
     2
  9
$DIMTDEC
 70
     2
  9
$DIMALTU
 70
     2
  9
$DIMALTTD
 70
     3
  9
$DIMTXSTY
  7
STANDARD
  9
$DIMAUNIT
 70
     0
  9
$LUNITS
 70
     2
  9
$LUPREC
 70
     1
  9
$SKETCHINC
 40
1.0
  9
$FILLETRAD
 40
10.0
  9
$AUNITS
 70
     0
  9
$AUPREC
 70
     0
  9
$MENU
  1
.
  9
$ELEVATION
 40
0.0
  9
$PELEVATION
 40
0.0
  9
$THICKNESS
 40
0.0
  9
$LIMCHECK
 70
     0
  9
$BLIPMODE
 70
     0
  9
$CHAMFERA
 40
10.0
  9
$CHAMFERB
 40
10.0
  9
$CHAMFERC
 40
20.0
  9
$CHAMFERD
 40
0.0
  9
$SKPOLY
 70
     0
  9
$TDCREATE
 40
2453964.616773426
  9
$TDUPDATE
 40
2453966.374573379
  9
$TDINDWG
 40
0.0152862847
  9
$TDUSRTIMER
 40
0.0152862847
  9
$USRTIMER
 70
     1
  9
$ANGBASE
 50
0.0
  9
$ANGDIR
 70
     0
  9
$PDMODE
 70
     0
  9
$PDSIZE
 40
-1.0
  9
$PLINEWID
 40
0.0
  9
$COORDS
 70
     2
  9
$SPLFRAME
 70
     0
  9
$SPLINETYPE
 70
     6
  9
$SPLINESEGS
 70
     8
  9
$ATTDIA
 70
     0
  9
$ATTREQ
 70
     1
  9
$HANDLING
 70
 22529
  9
$HANDSEED
  5
159
  9
$SURFTAB1
 70
     6
  9
$SURFTAB2
 70
     6
  9
$SURFTYPE
 70
     6
  9
$SURFU
 70
     6
  9
$SURFV
 70
     6
  9
$UCSNAME
  2

  9
$UCSORG
 10
0.0
 20
0.0
 30
0.0
  9
$UCSXDIR
 10
1.0
 20
0.0
 30
0.0
  9
$UCSYDIR
 10
0.0
 20
1.0
 30
0.0
  9
$PUCSNAME
  2

  9
$PUCSORG
 10
0.0
 20
0.0
 30
0.0
  9
$PUCSXDIR
 10
1.0
 20
0.0
 30
0.0
  9
$PUCSYDIR
 10
0.0
 20
1.0
 30
0.0
  9
$USERI1
 70
     0
  9
$USERI2
 70
     0
  9
$USERI3
 70
     0
  9
$USERI4
 70
     0
  9
$USERI5
 70
     0
  9
$USERR1
 40
0.0
  9
$USERR2
 40
0.0
  9
$USERR3
 40
0.0
  9
$USERR4
 40
0.0
  9
$USERR5
 40
0.0
  9
$WORLDVIEW
 70
     1
  9
$SHADEDGE
 70
     3
  9
$SHADEDIF
 70
    70
  9
$TILEMODE
 70
     1
  9
$MAXACTVP
 70
    48
  9
$PINSBASE
 10
0.0
 20
0.0
 30
0.0
  9
$PLIMCHECK
 70
     0
  9
$PEXTMIN
 10
1.000000000000000E+20
 20
1.000000000000000E+20
 30
1.000000000000000E+20
  9
$PEXTMAX
 10
-1.000000000000000E+20
 20
-1.000000000000000E+20
 30
-1.000000000000000E+20
  9
$PLIMMIN
 10
0.0
 20
0.0
  9
$PLIMMAX
 10
420.0
 20
297.0
  9
$UNITMODE
 70
     0
  9
$VISRETAIN
 70
     1
  9
$PLINEGEN
 70
     0
  9
$PSLTSCALE
 70
     1
  9
$TREEDEPTH
 70
  3020
  9
$PICKSTYLE
 70
     1
  9
$CMLSTYLE
  2
STANDARD
  9
$CMLJUST
 70
     0
  9
$CMLSCALE
 40
20.0
  9
$PROXYGRAPHICS
 70
     1
  9
$MEASUREMENT
 70
     1
  0
ENDSEC
  0
SECTION
  2
CLASSES
  0
CLASS
  1
ACDBDICTIONARYWDFLT
  2
AcDbDictionaryWithDefault
  3
AutoCAD 2000
 90
        0
280
     0
281
     0
  0
CLASS
  1
ACDBPLACEHOLDER
  2
AcDbPlaceHolder
  3
AutoCAD 2000
 90
        0
280
     0
281
     0
  0
CLASS
  1
LAYOUT
  2
AcDbLayout
  3
AutoCAD 2000
 90
        0
280
     0
281
     0
  0
CLASS
  1
DICTIONARYVAR
  2
AcDbDictionaryVar
  3
AutoCAD 2000
 90
        0
280
     0
281
     0
  0
CLASS
  1
LONG_TRANSACTION
  2
AcDbLongTransaction
  3
AutoCAD 2000
 90
        0
280
     0
281
     0
  0
CLASS
  1
LWPOLYLINE
  2
AcDbPolyline
  3
AutoCAD 2000
 90
        0
280
     0
281
     1
  0
CLASS
  1
HATCH
  2
AcDbHatch
  3
AutoCAD 2000
 90
        0
280
     0
281
     1
  0
CLASS
  1
XRECORD
  2
AcDbXrecord
  3
AutoCAD 2000
 90
        0
280
     0
281
     0
  0
CLASS
  1
LONG_TRANSACTION
  2
AcDbLongTransaction
  3
AutoCAD 2000
 90
        0
280
     0
281
     0
  0
CLASS
  1
LWPOLYLINE
  2
AcDbPolyline
  3
AutoCAD 2000
 90
        0
280
     0
281
     1
  0
CLASS
  1
HATCH
  2
AcDbHatch
  3
AutoCAD 2000
 90
        0
280
     0
281
     1
  0
CLASS
  1
XRECORD
  2
AcDbXrecord
  3
AutoCAD 2000
 90
        0
280
     0
281
     0
  0
ENDSEC
  0
SECTION
  2
TABLES
  0
TABLE
  2
VPORT
  5
8
330
0
100
AcDbSymbolTable
 70
     2
  0
VPORT
  5
134
330
8
100
AcDbSymbolTableRecord
100
AcDbViewportTableRecord
  2
*ACTIVE
 70
     0
 10
0.0
 20
0.0
 11
1.0
 21
1.0
 12
7.5571037899087
 22
11.30909733987541
 13
0.0
 23
0.0
 14
10.0
 24
10.0
 15
10.0
 25
10.0
 16
0.0
 26
0.0
 36
1.0
 17
0.0
 27
0.0
 37
0.0
 40
12.5021629291329
 41
1.674961119751166
 42
50.0
 43
0.0
 44
0.0
 50
0.0
 51
0.0
 71
     0
 72
  2000
 73
     1
 74
     3
 75
     0
 76
     0
 77
     0
 78
     0
  0
ENDTAB
  0
TABLE
  2
LTYPE
  5
5
330
0
100
AcDbSymbolTable
 70
     1
  0
LTYPE
  5
14
330
5
100
AcDbSymbolTableRecord
100
AcDbLinetypeTableRecord
  2
BYBLOCK
 70
     0
  3

 72
    65
 73
     0
 40
0.0
  0
LTYPE
  5
15
330
5
100
AcDbSymbolTableRecord
100
AcDbLinetypeTableRecord
  2
BYLAYER
 70
     0
  3

 72
    65
 73
     0
 40
0.0
  0
LTYPE
  5
16
330
5
100
AcDbSymbolTableRecord
100
AcDbLinetypeTableRecord
  2
CONTINUOUS
 70
     0
  3
Solid line
 72
    65
 73
     0
 40
0.0
  0
ENDTAB
  0
TABLE
  2
LAYER
  5
2
330
0
100
AcDbSymbolTable
 70
     2
  0
LAYER
  5
10
330
2
100
AcDbSymbolTableRecord
100
AcDbLayerTableRecord
  2
0
 70
     0
 62
     7
  6
CONTINUOUS
  0
LAYER
  5
2F
330
2
100
AcDbSymbolTableRecord
100
AcDbLayerTableRecord
  2
DIMENSIONS
 70
     0
 62
    14
  6
CONTINUOUS
  0
ENDTAB
  0
TABLE
  2
STYLE
  5
3
330
0
100
AcDbSymbolTable
 70
     1
  0
STYLE
  5
11
330
3
100
AcDbSymbolTableRecord
100
AcDbTextStyleTableRecord
  2
STANDARD
 70
     0
 40
0.0
 41
1.0
 50
0.0
 71
     0
 42
2.5
  3
ARIAL.TTF
  4

1001
ACAD
1000
Arial
1071
       34
  0
ENDTAB
  0
TABLE
  2
VIEW
  5
6
330
0
100
AcDbSymbolTable
 70
     0
  0
ENDTAB
  0
TABLE
  2
UCS
  5
7
330
0
100
AcDbSymbolTable
 70
     0
  0
ENDTAB
  0
TABLE
  2
APPID
  5
9
330
0
100
AcDbSymbolTable
 70
     1
  0
APPID
  5
12
330
9
100
AcDbSymbolTableRecord
100
AcDbRegAppTableRecord
  2
ACAD
 70
     0
  0
ENDTAB
  0
TABLE
  2
DIMSTYLE
  5
A
330
0
100
AcDbSymbolTable
 70
     1
  0
DIMSTYLE
105
27
330
A
100
AcDbSymbolTableRecord
100
AcDbDimStyleTableRecord
  2
ISO-25
 70
     0
  3

  4

  5

  6

  7

 40
1.0
 41
2.5
 42
0.625
 43
3.75
 44
1.25
 45
0.0
 46
0.0
 47
0.0
 48
0.0
140
2.5
141
2.5
142
0.0
143
0.03937007874016
144
1.0
145
0.0
146
1.0
147
0.625
 71
     0
 72
     0
 73
     0
 74
     0
 75
     0
 76
     0
 77
     1
 78
     8
170
     0
171
     3
172
     1
173
     0
174
     0
175
     0
176
     0
177
     0
178
     0
270
     2
271
     2
272
     2
273
     2
274
     3
340
11
275
     0
280
     0
281
     0
282
     0
283
     0
284
     8
285
     0
286
     0
287
     3
288
     0
  0
ENDTAB
  0
TABLE
  2
BLOCK_RECORD
  5
1
330
0
100
AcDbSymbolTable
 70
     1
  0
BLOCK_RECORD
  5
1F
102
{ACAD_XDICTIONARY
360
F5
102
}
330
1
100
AcDbSymbolTableRecord
100
AcDbBlockTableRecord
  2
*MODEL_SPACE
  0
BLOCK_RECORD
  5
1B
102
{ACAD_XDICTIONARY
360
F7
102
}
330
1
100
AcDbSymbolTableRecord
100
AcDbBlockTableRecord
  2
*PAPER_SPACE
  0
ENDTAB
  0
ENDSEC
  0
SECTION
  2
BLOCKS
  0
BLOCK
  5
20
330
1F
100
AcDbEntity
  8
0
100
AcDbBlockBegin
  2
*MODEL_SPACE
 70
     0
 10
0.0
 20
0.0
 30
0.0
  3
*MODEL_SPACE
  1

  0
ENDBLK
  5
21
330
1F
100
AcDbEntity
  8
0
100
AcDbBlockEnd
  0
BLOCK
  5
1C
330
1B
100
AcDbEntity
 67
     1
  8
0
100
AcDbBlockBegin
  2
*PAPER_SPACE
 70
     0
 10
0.0
 20
0.0
 30
0.0
  3
*PAPER_SPACE
  1

  0
ENDBLK
  5
1D
330
1B
100
AcDbEntity
 67
     1
  8
0
100
AcDbBlockEnd
  0
ENDSEC
  0
SECTION
  2
ENTITIES
  0
LINE
  5
9C
330
1F
100
AcDbEntity
  8
0
  6
CONTINUOUS
 62
     7
100
AcDbLine
 10
5.674184964562107
 20
5.226710767097113
 30
0.0
 11
6.888907636238525
 21
5.201265954397127
 31
0.0
  0
LINE
  5
9D
330
1F
100
AcDbEntity
  8
0
  6
CONTINUOUS
 62
     7
100
AcDbLine
 10
7.506881180116735
 20
5.201265954397127
 30
0.0
 11
10.24061312490245
 21
5.258529475469838
 31
0.0
  0
ARC
  5
9E
330
1F
100
AcDbEntity
  8
0
  6
CONTINUOUS
 62
     7
100
AcDbCircle
 10
7.50866128580682
 20
5.116284596301765
 30
0.0
 40
0.0850000000000005
100
AcDbArc
 50
91.19999999999931
 51
126.2945780018985
  0
ARC
  5
9F
330
1F
100
AcDbEntity
  8
0
  6
CONTINUOUS
 62
     7
100
AcDbCircle
 10
6.887127530548442
 20
5.116284596301765
 30
0.0
 40
0.0850000000000003
100
AcDbArc
 50
53.70542199809768
 51
88.80000000000128
  0
ARC
  5
A0
330
1F
100
AcDbEntity
  8
0
  6
CONTINUOUS
 62
     7
100
AcDbCircle
 10
7.197894408177631
 20
5.539426354780653
 30
0.0
 40
0.4400000000000003
100
AcDbArc
 50
288.5530045350212
 51
306.2945780018994
  0
ARC
  5
A1
330
1F
100
AcDbEntity
  8
0
  6
CONTINUOUS
 62
     7
100
AcDbCircle
 10
7.197894408177631
 20
5.539426354780653
 30
0.0
 40
0.4400000000000006
100
AcDbArc
 50
233.7054219981029
 51
251.4469954649802
  0
LINE
  5
A2
330
1F
100
AcDbEntity
  8
0
  6
CONTINUOUS
 62
     7
100
AcDbLine
 10
12.05789440817763
 20
7.459796894656949
 30
0.0
 11
3.05789440817763
 21
7.459796894656949
 31
0.0
  0
LINE
  5
A3
330
1F
100
AcDbEntity
  8
0
  6
CONTINUOUS
 62
     7
100
AcDbLine
 10
3.05789440817763
 20
7.70979689465695
 30
0.0
 11
3.05789440817763
 21
7.459796894656949
 31
0.0
  0
LINE
  5
A4
330
1F
100
AcDbEntity
  8
0
  6
CONTINUOUS
 62
     7
100
AcDbLine
 10
12.05789440817763
 20
7.70979689465695
 30
0.0
 11
12.05789440817763
 21
7.459796894656949
 31
0.0
  0
LINE
  5
A5
330
1F
100
AcDbEntity
  8
0
  6
CONTINUOUS
 62
     7
100
AcDbLine
 10
12.05789440817763
 20
7.70979689465695
 30
0.0
 11
3.05789440817763
 21
7.70979689465695
 31
0.0
  0
LINE
  5
A6
330
1F
100
AcDbEntity
  8
0
  6
CONTINUOUS
 62
     7
100
AcDbLine
 10
3.864146433262367
 20
7.459796894656949
 30
0.0
 11
4.431631121019774
 21
5.274083928570699
 31
0.0
  0
LINE
  5
A7
330
1F
100
AcDbEntity
  8
0
  6
CONTINUOUS
 62
     7
100
AcDbLine
 10
11.64425572062603
 20
7.459796894656949
 30
0.0
 11
10.7077080052142
 21
5.286108242302188
 31
0.0
  0
LWPOLYLINE
  5
A8
330
1F
100
AcDbEntity
  8
0
  6
CONTINUOUS
 62
     7
100
AcDbPolyline
 90
       14
 70
   128
 43
0.0
 10
4.431631121019774
 20
5.274083928570699
 10
4.904795559656474
 20
5.267127294507988
 10
5.377971901883319
 20
5.260938918859404
 10
5.851159695902548
 20
5.255768228364233
 10
6.324358489916404
 20
5.251864649761769
 10
6.797627900601797
 20
5.249551977479604
 10
7.270905890391926
 20
5.248972776420771
 10
7.744183023695126
 20
5.250103460586381
 10
8.217449864919728
 20
5.252920443977547
 10
8.632509348190511
 20
5.256652499716481
 10
9.047559836719882
 20
5.261321928924971
 10
9.462600701209876
 20
5.266748120554325
 10
10.08516179856229
 20
5.275953008527031
 10
10.7077080052142
 20
5.286108242302188
  0
ARC
  5
A9
330
1F
100
AcDbEntity
  8
0
  6
CONTINUOUS
 62
     7
100
AcDbCircle
 10
4.06237470967948
 20
10.4730243323088
 30
0.0
 40
5.212037185106839
100
AcDbArc
 50
270.1969123884452
 51
274.0626288601026
  0
LINE
  5
AA
330
1F
100
AcDbEntity
  8
0
  6
CONTINUOUS
 62
     7
100
AcDbLine
 10
3.438348130205284
 20
7.45979689465695
 30
0.0
 11
4.080287244933165
 21
5.26118237543385
 31
0.0
  0
LWPOLYLINE
  5
AB
330
1F
100
AcDbEntity
  8
0
  6
CONTINUOUS
 62
     7
100
AcDbPolyline
 90
        4
 70
   128
 43
0.0
 10
5.67418570746489
 20
5.226746232905557
 10
5.551084062288792
 20
5.229284441359094
 10
5.060822174895075
 20
5.239794498961844
 10
4.080287244933165
 20
5.26118237543385
  0
ARC
  5
AC
330
1F
100
AcDbEntity
  8
0
  6
CONTINUOUS
 62
     7
100
AcDbCircle
 10
10.04527599707005
 20
12.43652100756241
 30
0.0
 40
7.181031881213889
100
AcDbArc
 50
271.5587412208714
 51
275.2929155233103
  0
LINE
  5
AD
330
1F
100
AcDbEntity
  8
0
  6
CONTINUOUS
 62
     7
100
AcDbLine
 10
7.19789440817763
 20
5.122293282488368
 30
0.0
 11
7.057894408177631
 21
5.122293282488369
 31
0.0
  0
LINE
  5
AE
330
1F
100
AcDbEntity
  8
0
  6
CONTINUOUS
 62
     7
100
AcDbLine
 10
7.337894408177629
 20
5.122293282488369
 30
0.0
 11
7.19789440817763
 21
5.122293282488368
 31
0.0
  0
LINE
  5
AF
330
1F
100
AcDbEntity
  8
0
  6
CONTINUOUS
 62
     7
100
AcDbLine
 10
6.888907636238525
 20
5.201265954397127
 30
0.0
 11
7.506881180116733
 21
5.201265954397127
 31
0.0
  0
LINE
  5
B0
330
1F
100
AcDbEntity
  8
0
  6
CONTINUOUS
 62
     7
100
AcDbLine
 10
7.458346648476379
 20
5.184793261960252
 30
0.0
 11
6.937442167878886
 21
5.184793261960249
 31
0.0
  0
LINE
  5
B1
330
1F
100
AcDbEntity
  8
DIMENSIONS
  6
CONTINUOUS
 62
     7
100
AcDbLine
 10
10.69493392341918
 20
11.7377407087013
 30
0.0
 11
9.959969226433315
 21
15.84902330841019
 31
0.0
  0
POINT
  5
B2
330
1F
100
AcDbEntity
  8
DIMENSIONS
  6
CONTINUOUS
 62
     7
100
AcDbPoint
 10
11.7328944081773
 20
11.40142490632363
 30
0.0
  0
POINT
  5
B3
330
1F
100
AcDbEntity
  8
DIMENSIONS
  6
CONTINUOUS
 62
     7
100
AcDbPoint
 10
11.77158993472312
 20
11.40756272638988
 30
0.0
  0
LINE
  5
B4
330
1F
100
AcDbEntity
  8
0
  6
CONTINUOUS
 62
     7
100
AcDbLine
 10
11.71152195482367
 20
11.4014875827945
 30
0.0
 11
11.93174305647865
 21
11.40084176636736
 31
0.0
  0
LINE
  5
B5
330
1F
100
AcDbEntity
  8
0
  6
CONTINUOUS
 62
     7
100
AcDbLine
 10
12.05789440817763
 20
17.50047181719074
 30
0.0
 11
12.05789440817763
 21
11.00047181719074
 31
0.0
  0
LINE
  5
B6
330
1F
100
AcDbEntity
  8
0
  6
CONTINUOUS
 62
     7
100
AcDbLine
 10
11.02046352796457
 20
16.59267880401469
 30
0.0
 11
9.143511608119002
 21
15.91489061073713
 31
0.0
  0
LINE
  5
B7
330
1F
100
AcDbEntity
  8
0
  6
CONTINUOUS
 62
     7
100
AcDbLine
 10
9.143511608119002
 20
15.91489061073713
 30
0.0
 11
9.024286408127695
 21
16.24505270302075
 31
0.0
  0
LINE
  5
B8
330
1F
100
AcDbEntity
  8
0
  6
CONTINUOUS
 62
     7
100
AcDbLine
 10
7.848594033513074
 20
15.8204971232988
 30
0.0
 11
9.024286408127695
 21
16.24505270302075
 31
0.0
  0
LINE
  5
B9
330
1F
100
AcDbEntity
  8
0
  6
CONTINUOUS
 62
     7
100
AcDbLine
 10
7.967819233504382
 20
15.49033503101518
 30
0.0
 11
7.848594033513074
 21
15.8204971232988
 31
0.0
  0
LINE
  5
BA
330
1F
100
AcDbEntity
  8
0
  6
CONTINUOUS
 62
     7
100
AcDbLine
 10
7.967819233504382
 20
15.49033503101518
 30
0.0
 11
5.851572959198066
 21
14.72613498751568
 31
0.0
  0
LINE
  5
BB
330
1F
100
AcDbEntity
  8
0
  6
CONTINUOUS
 62
     7
100
AcDbLine
 10
5.851572959198066
 20
14.72613498751568
 30
0.0
 11
5.732347759206759
 21
15.0562970797993
 31
0.0
  0
LINE
  5
BC
330
1F
100
AcDbEntity
  8
0
  6
CONTINUOUS
 62
     7
100
AcDbLine
 10
4.556655384592139
 20
14.63174150007736
 30
0.0
 11
5.732347759206759
 21
15.0562970797993
 31
0.0
  0
LINE
  5
BD
330
1F
100
AcDbEntity
  8
0
  6
CONTINUOUS
 62
     7
100
AcDbLine
 10
4.675880584583445
 20
14.30157940779374
 30
0.0
 11
4.556655384592139
 21
14.63174150007736
 31
0.0
  0
LINE
  5
BE
330
1F
100
AcDbEntity
  8
0
  6
CONTINUOUS
 62
     7
100
AcDbLine
 10
4.675880584583445
 20
14.30157940779374
 30
0.0
 11
3.607787938189642
 21
13.91587928548486
 31
0.0
  0
LINE
  5
BF
330
1F
100
AcDbEntity
  8
0
  6
CONTINUOUS
 62
     7
100
AcDbLine
 10
3.05789440817763
 20
14.25047181719074
 30
0.0
 11
12.05789440817763
 21
17.50047181719074
 31
0.0
  0
LINE
  5
C0
330
1F
100
AcDbEntity
  8
0
  6
CONTINUOUS
 62
     7
100
AcDbLine
 10
3.05789440817763
 20
11.00047181719074
 30
0.0
 11
3.05789440817763
 21
14.25047181719074
 31
0.0
  0
LINE
  5
C1
330
1F
100
AcDbEntity
  8
0
  6
CONTINUOUS
 62
     7
100
AcDbLine
 10
3.51508773428104
 20
13.88254226533737
 30
0.0
 11
3.207703800976686
 21
13.77250091346885
 31
0.0
  0
ARC
  5
C2
330
1F
100
AcDbEntity
  8
0
  6
CONTINUOUS
 62
     7
100
AcDbCircle
 10
-8.094675486457923
 20
46.30977288216885
 30
0.0
 40
34.44288014319501
100
AcDbArc
 50
289.6986423730456
 51
289.8625187869417
  0
LINE
  5
C3
330
1F
100
AcDbEntity
  8
0
  6
CONTINUOUS
 62
     7
100
AcDbLine
 10
3.622933710219043
 20
11.40164830010223
 30
0.0
 11
11.59342879355043
 21
11.40164830010223
 31
0.0
  0
LINE
  5
C4
330
1F
100
AcDbEntity
  8
0
  6
CONTINUOUS
 62
     7
100
AcDbLine
 10
12.05789440817763
 20
11.00047181719074
 30
0.0
 11
3.05789440817763
 21
11.00047181719074
 31
0.0
  0
ARC
  5
C5
330
1F
100
AcDbEntity
  8
0
  6
CONTINUOUS
 62
     7
100
AcDbCircle
 10
11.601538495481
 20
-26.7537390738129
 30
0.0
 40
38.15538823574971
100
AcDbArc
 50
89.83484385680434
 51
90.01217787889769
  0
ELLIPSE
  5
C6
330
1F
100
AcDbEntity
  8
0
  6
CONTINUOUS
 62
     7
100
AcDbEllipse
 10
11.93055424163621
 20
11.442854465979
 30
0.0
 11
0.3048036012430213
 21
-0.0010781886461171
 31
0.0
210
0.0
220
0.0
230
1.0
 40
0.1378211181719591
 41
3.547109874646604
 42
4.716776772598494
  0
LINE
  5
C7
330
1F
100
AcDbEntity
  8
0
  6
CONTINUOUS
 62
     7
100
AcDbLine
 10
11.65041205522418
 20
11.42727315708593
 30
0.0
 11
10.69493392341918
 21
11.7377407087013
 31
0.0
  0
ELLIPSE
  5
C8
330
1F
100
AcDbEntity
  8
0
  6
CONTINUOUS
 62
     7
100
AcDbEllipse
 10
3.616059866069315
 20
11.43675894270111
 30
0.0
 11
0.2536938816853689
 21
-0.0009698869850574
 31
0.0
210
0.0
220
0.0
230
1.0
 40
0.1383448582209142
 41
4.740016226835762
 42
6.034226847202979
  0
LINE
  5
C9
330
1F
100
AcDbEntity
  8
0
  6
CONTINUOUS
 62
     7
100
AcDbLine
 10
3.861899197173478
 20
11.42717118406989
 30
0.0
 11
4.440967971167568
 21
11.73941738503909
 31
0.0
  0
LWPOLYLINE
  5
CA
330
1F
100
AcDbEntity
  8
0
  6
CONTINUOUS
 62
     7
100
AcDbPolyline
 90
       14
 70
   128
 43
0.0
 10
4.440967971167568
 20
11.73941738503909
 10
4.893930191465742
 20
11.74035222344146
 10
5.346903217418237
 20
11.7411893885137
 10
5.799886807565774
 20
11.74189821558667
 10
6.252880720449079
 20
11.74244803999126
 10
6.705936611885224
 20
11.74279870590485
 10
7.159001389689111
 20
11.74292934003952
 10
7.612066597782572
 20
11.7428383527703
 10
8.065123780087446
 20
11.74252415447222
 10
8.503443055243197
 20
11.74202358160069
 10
8.941752544529705
 20
11.74136723132685
 10
9.380051041926837
 20
11.74058572954542
 10
10.03750094627591
 20
11.73923944312626
 10
10.69493392341918
 20
11.7377407087013
  0
LINE
  5
CB
330
1F
100
AcDbEntity
  8
0
  6
CONTINUOUS
 62
     7
100
AcDbLine
 10
5.851572959198066
 20
14.72613498751568
 30
0.0
 11
5.867594202122891
 21
14.68176846864694
 31
0.0
  0
LINE
  5
CC
330
1F
100
AcDbEntity
  8
0
  6
CONTINUOUS
 62
     7
100
AcDbLine
 10
7.983840476429204
 20
15.44596851214644
 30
0.0
 11
7.967819233504382
 21
15.49033503101518
 31
0.0
  0
LINE
  5
CD
330
1F
100
AcDbEntity
  8
0
  6
CONTINUOUS
 62
     7
100
AcDbLine
 10
7.983840476429204
 20
15.44596851214644
 30
0.0
 11
9.159532851043824
 21
15.87052409186839
 31
0.0
  0
LINE
  5
CE
330
1F
100
AcDbEntity
  8
0
  6
CONTINUOUS
 62
     7
100
AcDbLine
 10
9.159532851043824
 20
15.87052409186839
 30
0.0
 11
9.143511608119002
 21
15.91489061073713
 31
0.0
  0
ELLIPSE
  5
CF
330
1F
100
AcDbEntity
  8
0
  6
CONTINUOUS
 62
     7
100
AcDbEllipse
 10
11.02647555478293
 20
16.55005411285466
 30
0.0
 11
0.2865088604327344
 21
0.1047822092786603
 31
0.0
210
0.0
220
0.0
230
0.9999999999999998
 40
0.1380504363726416
 41
1.541309842227212
 42
2.735269317957658
  0
LINE
  5
D0
330
1F
100
AcDbEntity
  8
0
  6
CONTINUOUS
 62
     7
100
AcDbLine
 10
10.75757703539499
 20
16.46943584164755
 30
0.0
 11
9.959969226433317
 21
15.84902330841019
 31
0.0
  0
LWPOLYLINE
  5
D1
330
1F
100
AcDbEntity
  8
0
  6
CONTINUOUS
 62
     7
100
AcDbPolyline
 90
       17
 70
   128
 43
0.0
 10
9.959969226433317
 20
15.84902330841019
 10
8.982167452809413
 20
15.49274408324343
 10
8.493253571029857
 20
15.31462848284021
 10
8.004316055520753
 20
15.1365570274995
 10
7.759824378589925
 20
15.04755710417378
 10
7.515301209186335
 20
14.95861924412551
 10
7.352245105079982
 20
14.89938612910547
 10
7.189146622386104
 20
14.84024455786287
 10
7.025994577049771
 20
14.78123764159591
 10
6.86319035287101
 20
14.72254098908895
 10
6.700341815355789
 20
14.6639809419759
 10
6.537467714950095
 20
14.60551732924578
 10
6.170964332360356
 20
14.47412978995662
 10
5.804433010078829
 20
14.3428647840546
 10
5.43788607299814
 20
14.21167024595527
 10
5.07133584601091
 20
14.08049411007419
 10
4.093515953292796
 20
13.73056994852274
  0
LINE
  5
D2
330
1F
100
AcDbEntity
  8
0
  6
CONTINUOUS
 62
     7
100
AcDbLine
 10
3.437091925559956
 20
13.82817272967763
 30
0.0
 11
4.093515953292796
 21
13.73056994852274
 31
0.0
  0
ELLIPSE
  5
D3
330
1F
100
AcDbEntity
  8
0
  6
CONTINUOUS
 62
     7
100
AcDbEllipse
 10
3.208988852566858
 20
13.73574067502383
 30
0.0
 11
0.2383927324914902
 21
0.0870145388373818
 31
0.0
210
0.0
220
0.0
230
1.0
 40
0.1379471054649461
 41
0.2487073508920845
 42
1.525871117778147
  0
LINE
  5
D4
330
1F
100
AcDbEntity
  8
0
  6
CONTINUOUS
 62
     7
100
AcDbLine
 10
4.675880584583445
 20
14.30157940779374
 30
0.0
 11
4.691901827508271
 21
14.257212888925
 31
0.0
  0
LINE
  5
D5
330
1F
100
AcDbEntity
  8
0
  6
CONTINUOUS
 62
     7
100
AcDbLine
 10
4.691901827508271
 20
14.257212888925
 30
0.0
 11
5.867594202122891
 21
14.68176846864694
 31
0.0
  0
LWPOLYLINE
  5
D6
330
1F
100
AcDbEntity
  8
0
  6
CONTINUOUS
 62
     7
100
AcDbPolyline
 90
       98
 70
   128
 43
0.0
 10
6.800000918862221
 20
15.02925308582412
 10
6.799861079791854
 20
15.03044303241582
 10
6.800234678544864
 20
15.03181318425703
 10
6.801120148118243
 20
15.03335779445479
 10
6.802513774544882
 20
15.03507038437713
 10
6.804409712471226
 20
15.03694377082675
 10
6.806800009674726
 20
15.03897009616983
 10
6.809674640418225
 20
15.04114086129368
 10
6.81302154750138
 20
15.04344696125499
 10
6.816826692832751
 20
15.04587872346908
 10
6.821074116310437
 20
15.04842594828013
 10
6.825746002764289
 20
15.05107795174208
 10
6.830822756678922
 20
15.05382361043074
 10
6.836283084384124
 20
15.05665140809941
 10
6.842104083367901
 20
15.05954948398193
 10
6.848261338337573
 20
15.0625056825409
 10
6.854729023626002
 20
15.06550760445221
 10
6.861480011513407
 20
15.06854265861212
 10
6.868485986010456
 20
15.07159811494874
 10
6.875717561625356
 20
15.07466115781632
 10
6.883144406616832
 20
15.07771893974862
 10
6.890735370215976
 20
15.08075863534555
 10
6.89845861328341
 20
15.0837674950674
 10
6.906281741853689
 20
15.08673289871086
 10
6.91417194300686
 20
15.08964240834249
 10
6.922096122497253
 20
15.09248382046776
 10
6.930021043562232
 20
15.09524521721677
 10
6.937913466328746
 20
15.09791501633189
 10
6.945740287232905
 20
15.10048201974782
 10
6.953468677867821
 20
15.10293546056014
 10
6.961066222677366
 20
15.10526504818544
 10
6.96850105491828
 20
15.10746101152364
 10
6.975741990320353
 20
15.10951413994134
 10
6.982758657884104
 20
15.11141582190445
 10
6.989521627267309
 20
15.11315808109794
 10
6.996002532226078
 20
15.11473360988126
 10
7.002174189592737
 20
15.11613579993917
 10
7.00801071329149
 20
15.11735876999926
 10
7.013487622913608
 20
15.1183973905001
 10
7.018581946396776
 20
15.11924730510636
 10
7.023272316377902
 20
15.1199049489808
 10
7.027539059815267
 20
15.12036756373649
 10
7.031364280504096
 20
15.12063320900635
 10
7.034731934139462
 20
15.12070077058181
 10
7.037627895611676
 20
15.12056996508615
 10
7.040040018251906
 20
15.12024134116306
 10
7.041958184779526
 20
15.1197162771755
 10
7.04337434973751
 20
15.11899697542429
 10
7.044282573237873
 20
15.11808645291095
 10
7.04467904587562
 20
15.11698852868334
 10
7.044562104706732
 20
15.11570780781721
 10
7.043932240223105
 20
15.11424966210098
 10
7.042792094295277
 20
15.1126202075045
 10
7.041146449091502
 20
15.11082627852663
 10
7.039002207019663
 20
15.10887539952895
 10
7.036368361776188
 20
15.10677575317594
 10
7.033255960623355
 20
15.10453614611409
 10
7.029678058053232
 20
15.10216597203374
 10
7.025649661032609
 20
15.09967517226867
 10
7.021187666058556
 20
15.0970741940987
 10
7.01631078828865
 20
15.0943739469302
 10
7.011039483043091
 20
15.09158575653819
 10
7.005395860007987
 20
15.08872131756212
 10
6.999403590499644
 20
15.08579264445454
 10
6.993087808178842
 20
15.08281202108825
 10
6.986475003631524
 20
15.07979194923347
 10
6.979592913258075
 20
15.07674509612112
 10
6.972470402937215
 20
15.07368424131201
 10
6.965137346952476
 20
15.07062222309494
 10
6.957624502689077
 20
15.06757188463842
 10
6.949963381626758
 20
15.06454602012201
 10
6.942186117169677
 20
15.06155732107306
 10
6.934325329867766
 20
15.05861832313402
 10
6.926413990594778
 20
15.05574135348363
 10
6.918485282257011
 20
15.05293847913242
 10
6.910572460612658
 20
15.05022145630948
 10
6.902708714785591
 20
15.04760168115277
 10
6.894927028058655
 20
15.04509014190972
 10
6.887260039530312
 20
15.04269737284875
 10
6.879739907214914
 20
15.04043341007484
 10
6.872398173160824
 20
15.03830774943465
 10
6.865265631152099
 20
15.03632930668763
 10
6.858372197548658
 20
15.03450638011021
 10
6.851746785806665
 20
15.03284661568996
 10
6.845417185205468
 20
15.03135697505569
 10
6.839409944289672
 20
15.03004370627789
 10
6.83375025951535
 20
15.02891231766221
 10
6.828461869567317
 20
15.02796755464569
 10
6.823566955790869
 20
15.02721337989275
 10
6.819086049155479
 20
15.0266529566744
 10
6.815037944140805
 20
15.02628863560038
 10
6.811439619906095
 20
15.02612194475988
 10
6.808306169073693
 20
15.02615358331222
 10
6.805650734425344
 20
15.02638341855431
 10
6.803484453776792
 20
15.02681048647728
 10
6.80181641326191
 20
15.02743299580983
 10
6.800653609222305
 20
15.02824833553149
 10
6.800000918862221
 20
15.02925308582412
  0
LINE
  5
D7
330
1F
100
AcDbEntity
  8
0
  6
CONTINUOUS
 62
     7
100
AcDbLine
 10
7.860331745029934
 20
15.78799269140597
 30
0.0
 11
9.036024119644553
 21
16.21254827112792
 31
0.0
  0
LINE
  5
D8
330
1F
100
AcDbEntity
  8
0
  6
CONTINUOUS
 62
     7
100
AcDbLine
 10
4.568393096108999
 20
14.59923706818452
 30
0.0
 11
5.744085470723618
 21
15.02379264790647
 31
0.0
  0
LWPOLYLINE
  5
D9
330
1F
100
AcDbEntity
  8
0
  6
CONTINUOUS
 62
     7
100
AcDbPolyline
 90
       37
 70
   128
 43
0.0
 10
6.808342778626739
 20
15.04016243359168
 10
6.811961330456433
 20
15.04041821537185
 10
6.816228073893797
 20
15.04088083012753
 10
6.820918443874923
 20
15.04153847400198
 10
6.826012767358092
 20
15.04238838860824
 10
6.83148967698021
 20
15.04342700910908
 10
6.837326200678964
 20
15.04464997916917
 10
6.843497858045623
 20
15.04605216922708
 10
6.849978763004391
 20
15.0476276980104
 10
6.856741732387597
 20
15.04936995720389
 10
6.86375839995135
 20
15.051271639167
 10
6.87099933535342
 20
15.0533247675847
 10
6.878434167594332
 20
15.0555207309229
 10
6.886031712403879
 20
15.0578503185482
 10
6.893760103038795
 20
15.06030375936052
 10
6.901586923942955
 20
15.06287076277645
 10
6.90947934670947
 20
15.06554056189157
 10
6.917404267774447
 20
15.06830195864058
 10
6.925328447264838
 20
15.07114337076585
 10
6.933218648418011
 20
15.07405288039748
 10
6.94104177698829
 20
15.07701828404094
 10
6.948765020055723
 20
15.08002714376279
 10
6.956355983654868
 20
15.08306683935972
 10
6.963782828646344
 20
15.08612462129201
 10
6.971014404261246
 20
15.08918766415961
 10
6.978020378758293
 20
15.09224312049621
 10
6.984771366645698
 20
15.09527817465612
 10
6.991239051934126
 20
15.09828009656744
 10
6.997396306903799
 20
15.10123629512641
 10
7.003217305887575
 20
15.10413437100893
 10
7.008677633592777
 20
15.1069621686776
 10
7.013754387507412
 20
15.10970782736626
 10
7.018426273961263
 20
15.1123598308282
 10
7.022673697438949
 20
15.11490705563926
 10
7.02647884277032
 20
15.11733881785335
 10
7.029825749853474
 20
15.11964491781466
 10
7.031157611645655
 20
15.12062334551523
  0
LWPOLYLINE
  5
DA
330
1F
100
AcDbEntity
  8
0
  6
CONTINUOUS
 62
     7
100
AcDbPolyline
 90
        5
 70
   128
 43
0.0
 10
4.093515953292796
 20
13.73056994852274
 10
4.18099960845292
 20
13.23289072384525
 10
4.268035701331106
 20
12.73513295775833
 10
4.354672052539617
 20
12.23730074334731
 10
4.440967971167568
 20
11.73941738503909
  0
LWPOLYLINE
  5
DB
330
1F
100
AcDbEntity
  8
0
  6
CONTINUOUS
 62
     7
100
AcDbPolyline
 90
        9
 70
   128
 43
0.0
 10
10.69493392341918
 20
11.7377407087013
 10
10.60129291662203
 20
12.25125830130117
 10
10.50797204078813
 20
12.76484552270535
 10
10.41506018891542
 20
13.27852889422501
 10
10.32266895509519
 20
13.79231902157489
 10
10.23090217733569
 20
14.30628331573786
 10
10.13984951301825
 20
14.82038109545981
 10
10.04955001372842
 20
15.33464251586823
 10
9.959969226433317
 20
15.84902330841019
  0
CIRCLE
  5
DC
330
1F
100
AcDbEntity
  8
0
  6
CONTINUOUS
 62
     7
100
AcDbCircle
 10
7.19789440817763
 20
14.3101473765154
 30
0.0
 40
0.1400000000000023
  0
LINE
  5
DD
330
1F
100
AcDbEntity
  8
0
  6
CONTINUOUS
 62
     7
100
AcDbLine
 10
11.93174305647865
 20
11.40084176636736
 30
0.0
 11
11.12236695242122
 21
15.95198804381618
 31
0.0
  0
LINE
  5
DF
330
1F
100
AcDbEntity
  8
0
  6
CONTINUOUS
 62
     7
100
AcDbLine
 10
11.07232775821261
 20
16.28366826459894
 30
0.0
 11
11.02046352796457
 21
16.59267880401469
 31
0.0
  0
ARC
  5
E0
330
1F
100
AcDbEntity
  8
0
  6
CONTINUOUS
 62
     7
100
AcDbCircle
 10
36.82465605317182
 20
19.9991985753746
 30
0.0
 40
26.01898495532291
100
AcDbArc
 50
188.209945592509
 51
188.948600917277
  0
LINE
  5
E1
330
1F
100
AcDbEntity
  8
0
  6
CONTINUOUS
 62
     7
100
AcDbLine
 10
3.207703800976686
 20
13.77250091346885
 30
0.0
 11
3.590115102790586
 21
11.61665502475742
 31
0.0
  0
ARC
  5
E2
330
1F
100
AcDbEntity
  8
0
  6
CONTINUOUS
 62
     7
100
AcDbCircle
 10
-15.37274755145399
 20
8.833910644872633
 30
0.0
 40
19.1659548764867
100
AcDbArc
 50
7.927789977892401
 51
8.348400839801609
  0
LINE
  5
E3
330
1F
100
AcDbEntity
  8
0
  6
CONTINUOUS
 62
     7
100
AcDbLine
 10
3.610032208496503
 20
11.47737407612804
 30
0.0
 11
3.622933710219043
 21
11.40164830010223
 31
0.0
  0
LINE
  5
E5
330
1F
100
AcDbEntity
  8
0
  6
CONTINUOUS
 62
     7
100
AcDbLine
 10
10.85433836528375
 20
15.90361955820266
 30
0.0
 11
11.65041205522418
 21
11.42727315708593
 31
0.0
  0
LINE
  5
E6
330
1F
100
AcDbEntity
  8
0
  6
CONTINUOUS
 62
     7
100
AcDbLine
 10
3.821963105941329
 20
11.65845926155297
 30
0.0
 11
3.437091925559956
 21
13.82817272967763
 31
0.0
  0
LINE
  5
E7
330
1F
100
AcDbEntity
  8
0
  6
CONTINUOUS
 62
     7
100
AcDbLine
 10
3.861899197173478
 20
11.42717118406989
 30
0.0
 11
3.847115816618089
 21
11.51394270795275
 31
0.0
  0
ARC
  5
E8
330
1F
100
AcDbEntity
  8
0
  6
CONTINUOUS
 62
     7
100
AcDbCircle
 10
-17.63474750703821
 20
7.849210038584393
 30
0.0
 40
21.79221902358352
100
AcDbArc
 50
9.68129685033727
 51
10.06693768002004
  0
LINE
  5
E9
330
1F
100
AcDbEntity
  8
0
  6
CONTINUOUS
 62
     7
100
AcDbLine
 10
10.75757703539499
 20
16.46943584164755
 30
0.0
 11
10.79588255201868
 21
16.24120902139248
 31
0.0
  0
ARC
  5
EA
330
1F
100
AcDbEntity
  8
0
  6
CONTINUOUS
 62
     7
100
AcDbCircle
 10
45.79082192061788
 20
22.12882152832241
 30
0.0
 40
35.48677250442642
100
AcDbArc
 50
189.550280934763
 51
190.1032846647316
  0
CIRCLE
  5
EB
330
1F
100
AcDbEntity
  8
0
  6
CONTINUOUS
 62
     7
100
AcDbCircle
 10
7.19789440817763
 20
14.3101473765154
 30
0.0
 40
0.3086726356408533
  0
CIRCLE
  5
EC
330
1F
100
AcDbEntity
  8
0
  6
CONTINUOUS
 62
     7
100
AcDbCircle
 10
7.197894408177631
 20
14.3101473765154
 30
0.0
 40
0.2515731866522
  0
ENDSEC
  0
SECTION
  2
OBJECTS
  0
DICTIONARY
  5
C
330
0
100
AcDbDictionary
  3
ACAD_GROUP
350
D
  3
ACAD_LAYOUT
350
1A
  3
ACAD_MLINESTYLE
350
17
  3
ACAD_PLOTSETTINGS
350
19
  3
ACAD_PLOTSTYLENAME
350
E
  3
ACDBHEADERROUNDTRIPXREC
350
135
  3
ACDBVARIABLEDICTIONARY
350
12F
  0
DICTIONARY
  5
F5
330
1F
100
AcDbDictionary
280
     1
  3
ACAD_LAYOUTSELFREF
360
157
  0
DICTIONARY
  5
F7
330
1B
100
AcDbDictionary
280
     1
  3
ACAD_LAYOUTSELFREF
360
156
  0
DICTIONARY
  5
D
102
{ACAD_REACTORS
330
C
102
}
330
C
100
AcDbDictionary
  0
DICTIONARY
  5
1A
102
{ACAD_REACTORS
330
C
102
}
330
C
100
AcDbDictionary
  0
DICTIONARY
  5
17
102
{ACAD_REACTORS
330
C
102
}
330
C
100
AcDbDictionary
  3
STANDARD
350
18
  0
DICTIONARY
  5
19
102
{ACAD_REACTORS
330
C
102
}
330
C
100
AcDbDictionary
  0
ACDBDICTIONARYWDFLT
  5
E
102
{ACAD_REACTORS
330
C
102
}
330
C
100
AcDbDictionary
281
     1
  3
Normal
350
F
100
AcDbDictionaryWithDefault
340
F
  0
DICTIONARY
  5
135
102
{ACAD_REACTORS
330
C
102
}
330
C
100
AcDbDictionary
  3
CEPSNTYPE
350
13F
  3
DIMSTYLEDATA
350
143
  3
FINGERPRINTGUID
350
140
  3
HYPERLINKBASE
350
138
  3
INSUNITS
350
13E
  3
LAYOUTDICT
350
13A
  3
LWETCUNION
350
13D
  3
PLOTSETDICT
350
13B
  3
PLOTSTYLNAMDICT
350
13C
  3
PSVPSCALE
350
142
  3
PUCSBASE
350
146
  3
PUCSORGBACK
350
14C
  3
PUCSORGBOTTOM
350
148
  3
PUCSORGFRONT
350
14B
  3
PUCSORGLEFT
350
149
  3
PUCSORGRIGHT
350
14A
  3
PUCSORGTOP
350
147
  3
PUCSORTHOREF
350
144
  3
PUCSORTHOVIEW
350
145
  3
STYLESHEET
350
139
  3
TSTACKALIGN
350
136
  3
TSTACKSIZE
350
137
  3
UCSBASE
350
14F
  3
UCSORGBACK
350
155
  3
UCSORGBOTTOM
350
151
  3
UCSORGFRONT
350
154
  3
UCSORGLEFT
350
152
  3
UCSORGRIGHT
350
153
  3
UCSORGTOP
350
150
  3
UCSORTHOREF
350
14D
  3
UCSORTHOVIEW
350
14E
  3
VERSIONGUID
350
141
  0
DICTIONARY
  5
12F
102
{ACAD_REACTORS
330
C
102
}
330
C
100
AcDbDictionary
  3
DIMASSOC
350
130
  0
XRECORD
  5
157
102
{ACAD_REACTORS
330
F5
102
}
330
F5
100
AcDbXrecord
340
1F
  0
XRECORD
  5
156
102
{ACAD_REACTORS
330
F7
102
}
330
F7
100
AcDbXrecord
340
1B
  0
MLINESTYLE
  5
18
102
{ACAD_REACTORS
330
17
102
}
330
17
100
AcDbMlineStyle
  2
STANDARD
 70
     0
  3

 62
   256
 51
90.0
 52
90.0
 71
     2
 49
0.5
 62
   256
  6
BYLAYER
 49
-0.5
 62
   256
  6
BYLAYER
  0
ACDBPLACEHOLDER
  5
F
102
{ACAD_REACTORS
330
E
102
}
330
E
100
AcDbPlaceHolder
280
     0
  0
XRECORD
  5
13F
102
{ACAD_REACTORS
330
135
102
}
330
135
100
AcDbXrecord
 90
        0
  0
XRECORD
  5
143
102
{ACAD_REACTORS
330
135
102
}
330
135
100
AcDbXrecord
1000
DSTYLE
1002
{
1070
   278
 70
    44
1002
}
  0
XRECORD
  5
140
102
{ACAD_REACTORS
330
135
102
}
330
135
100
AcDbXrecord
  1
{B8C3A7EE-A224-41F7-BD60-FAFD1A3A58BB}
  0
XRECORD
  5
138
102
{ACAD_REACTORS
330
135
102
}
330
135
100
AcDbXrecord
  1

  0
XRECORD
  5
13E
102
{ACAD_REACTORS
330
135
102
}
330
135
100
AcDbXrecord
 90
        4
  0
XRECORD
  5
13A
102
{ACAD_REACTORS
330
135
102
}
330
135
100
AcDbXrecord
340
1A
  0
XRECORD
  5
13D
102
{ACAD_REACTORS
330
135
102
}
330
135
100
AcDbXrecord
 90
    10269
  0
XRECORD
  5
13B
102
{ACAD_REACTORS
330
135
102
}
330
135
100
AcDbXrecord
340
19
  0
XRECORD
  5
13C
102
{ACAD_REACTORS
330
135
102
}
330
135
100
AcDbXrecord
340
E
  0
XRECORD
  5
142
102
{ACAD_REACTORS
330
135
102
}
330
135
100
AcDbXrecord
 40
0.0
  0
XRECORD
  5
146
102
{ACAD_REACTORS
330
135
102
}
330
135
100
AcDbXrecord
340
0
  0
XRECORD
  5
14C
102
{ACAD_REACTORS
330
135
102
}
330
135
100
AcDbXrecord
 10
0.0
 20
0.0
 30
0.0
  0
XRECORD
  5
148
102
{ACAD_REACTORS
330
135
102
}
330
135
100
AcDbXrecord
 10
0.0
 20
0.0
 30
0.0
  0
XRECORD
  5
14B
102
{ACAD_REACTORS
330
135
102
}
330
135
100
AcDbXrecord
 10
0.0
 20
0.0
 30
0.0
  0
XRECORD
  5
149
102
{ACAD_REACTORS
330
135
102
}
330
135
100
AcDbXrecord
 10
0.0
 20
0.0
 30
0.0
  0
XRECORD
  5
14A
102
{ACAD_REACTORS
330
135
102
}
330
135
100
AcDbXrecord
 10
0.0
 20
0.0
 30
0.0
  0
XRECORD
  5
147
102
{ACAD_REACTORS
330
135
102
}
330
135
100
AcDbXrecord
 10
0.0
 20
0.0
 30
0.0
  0
XRECORD
  5
144
102
{ACAD_REACTORS
330
135
102
}
330
135
100
AcDbXrecord
340
0
  0
XRECORD
  5
145
102
{ACAD_REACTORS
330
135
102
}
330
135
100
AcDbXrecord
 70
     0
  0
XRECORD
  5
139
102
{ACAD_REACTORS
330
135
102
}
330
135
100
AcDbXrecord
  1

  0
XRECORD
  5
136
102
{ACAD_REACTORS
330
135
102
}
330
135
100
AcDbXrecord
 90
        1
  0
XRECORD
  5
137
102
{ACAD_REACTORS
330
135
102
}
330
135
100
AcDbXrecord
 90
       70
  0
XRECORD
  5
14F
102
{ACAD_REACTORS
330
135
102
}
330
135
100
AcDbXrecord
340
0
  0
XRECORD
  5
155
102
{ACAD_REACTORS
330
135
102
}
330
135
100
AcDbXrecord
 10
0.0
 20
0.0
 30
0.0
  0
XRECORD
  5
151
102
{ACAD_REACTORS
330
135
102
}
330
135
100
AcDbXrecord
 10
0.0
 20
0.0
 30
0.0
  0
XRECORD
  5
154
102
{ACAD_REACTORS
330
135
102
}
330
135
100
AcDbXrecord
 10
0.0
 20
0.0
 30
0.0
  0
XRECORD
  5
152
102
{ACAD_REACTORS
330
135
102
}
330
135
100
AcDbXrecord
 10
0.0
 20
0.0
 30
0.0
  0
XRECORD
  5
153
102
{ACAD_REACTORS
330
135
102
}
330
135
100
AcDbXrecord
 10
0.0
 20
0.0
 30
0.0
  0
XRECORD
  5
150
102
{ACAD_REACTORS
330
135
102
}
330
135
100
AcDbXrecord
 10
0.0
 20
0.0
 30
0.0
  0
XRECORD
  5
14D
102
{ACAD_REACTORS
330
135
102
}
330
135
100
AcDbXrecord
340
0
  0
XRECORD
  5
14E
102
{ACAD_REACTORS
330
135
102
}
330
135
100
AcDbXrecord
 70
     0
  0
XRECORD
  5
141
102
{ACAD_REACTORS
330
135
102
}
330
135
100
AcDbXrecord
  1
{5B0D461A-8547-43BB-A51C-250333766CC5}
  0
DICTIONARYVAR
  5
130
102
{ACAD_REACTORS
330
12F
102
}
330
12F
100
DictionaryVariables
280
     0
  1
1
  0
ENDSEC
  0
EOF
