  0
SECTION
  2
HEADER
  9
$ACADVER
  1
AC1014
  9
$ACADMAINTVER
 70
     9
  9
$DWGCODEPAGE
  3
ANSI_1250
  9
$INSBASE
 10
0.0
 20
0.0
 30
0.0
  9
$EXTMIN
 10
4.024820181806118
 20
4.554778130500812
 30
0.0
  9
$EXTMAX
 10
14.69148684847278
 20
17.27429639252169
 30
0.0
  9
$LIMMIN
 10
0.0
 20
0.0
  9
$LIMMAX
 10
0.0
 20
0.0
  9
$ORTHOMODE
 70
     1
  9
$REGENMODE
 70
     1
  9
$FILLMODE
 70
     1
  9
$QTEXTMODE
 70
     0
  9
$MIRRTEXT
 70
     1
  9
$DRAGMODE
 70
     2
  9
$LTSCALE
 40
1.0
  9
$OSMODE
 70
  3007
  9
$ATTMODE
 70
     1
  9
$TEXTSIZE
 40
2.5
  9
$TRACEWID
 40
1.0
  9
$TEXTSTYLE
  7
STANDARD
  9
$CLAYER
  8
0
  9
$CELTYPE
  6
BYLAYER
  9
$CECOLOR
 62
   256
  9
$CELTSCALE
 40
1.0
  9
$DELOBJ
 70
     1
  9
$DISPSILH
 70
     0
  9
$DIMSCALE
 40
1.0
  9
$DIMASZ
 40
0.3
  9
$DIMEXO
 40
0.1
  9
$DIMDLI
 40
3.75
  9
$DIMRND
 40
0.0
  9
$DIMDLE
 40
0.0
  9
$DIMEXE
 40
0.1
  9
$DIMTP
 40
0.0
  9
$DIMTM
 40
0.0
  9
$DIMTXT
 40
0.2822222222222222
  9
$DIMCEN
 40
2.5
  9
$DIMTSZ
 40
0.0
  9
$DIMTOL
 70
     0
  9
$DIMLIM
 70
     0
  9
$DIMTIH
 70
     1
  9
$DIMTOH
 70
     1
  9
$DIMSE1
 70
     0
  9
$DIMSE2
 70
     0
  9
$DIMTAD
 70
     1
  9
$DIMZIN
 70
     0
  9
$DIMBLK
  1

  9
$DIMASO
 70
     1
  9
$DIMSHO
 70
     1
  9
$DIMPOST
  1

  9
$DIMAPOST
  1

  9
$DIMALT
 70
     0
  9
$DIMALTD
 70
     3
  9
$DIMALTF
 40
0.3937007874015748
  9
$DIMLFAC
 40
15.0
  9
$DIMTOFL
 70
     1
  9
$DIMTVP
 40
0.0
  9
$DIMTIX
 70
     0
  9
$DIMSOXD
 70
     0
  9
$DIMSAH
 70
     0
  9
$DIMBLK1
  1

  9
$DIMBLK2
  1

  9
$DIMSTYLE
  2
ISO-25
  9
$DIMCLRD
 70
     0
  9
$DIMCLRE
 70
     0
  9
$DIMCLRT
 70
     0
  9
$DIMTFAC
 40
1.0
  9
$DIMGAP
 40
0.1524
  9
$DIMJUST
 70
     0
  9
$DIMSD1
 70
     0
  9
$DIMSD2
 70
     0
  9
$DIMTOLJ
 70
     0
  9
$DIMTZIN
 70
     0
  9
$DIMALTZ
 70
     0
  9
$DIMALTTZ
 70
     0
  9
$DIMFIT
 70
     3
  9
$DIMUPT
 70
     0
  9
$DIMUNIT
 70
     2
  9
$DIMDEC
 70
     2
  9
$DIMTDEC
 70
     2
  9
$DIMALTU
 70
     2
  9
$DIMALTTD
 70
     3
  9
$DIMTXSTY
  7
STANDARD
  9
$DIMAUNIT
 70
     0
  9
$LUNITS
 70
     2
  9
$LUPREC
 70
     1
  9
$SKETCHINC
 40
1.0
  9
$FILLETRAD
 40
10.0
  9
$AUNITS
 70
     0
  9
$AUPREC
 70
     0
  9
$MENU
  1
.
  9
$ELEVATION
 40
0.0
  9
$PELEVATION
 40
0.0
  9
$THICKNESS
 40
0.0
  9
$LIMCHECK
 70
     0
  9
$BLIPMODE
 70
     0
  9
$CHAMFERA
 40
10.0
  9
$CHAMFERB
 40
10.0
  9
$CHAMFERC
 40
20.0
  9
$CHAMFERD
 40
0.0
  9
$SKPOLY
 70
     0
  9
$TDCREATE
 40
2453964.604769120
  9
$TDUPDATE
 40
2453966.374689305
  9
$TDINDWG
 40
0.0159960995
  9
$TDUSRTIMER
 40
0.0159960995
  9
$USRTIMER
 70
     1
  9
$ANGBASE
 50
0.0
  9
$ANGDIR
 70
     0
  9
$PDMODE
 70
     0
  9
$PDSIZE
 40
-1.0
  9
$PLINEWID
 40
0.0
  9
$COORDS
 70
     2
  9
$SPLFRAME
 70
     0
  9
$SPLINETYPE
 70
     6
  9
$SPLINESEGS
 70
     8
  9
$ATTDIA
 70
     0
  9
$ATTREQ
 70
     1
  9
$HANDLING
 70
 22529
  9
$HANDSEED
  5
19D
  9
$SURFTAB1
 70
     6
  9
$SURFTAB2
 70
     6
  9
$SURFTYPE
 70
     6
  9
$SURFU
 70
     6
  9
$SURFV
 70
     6
  9
$UCSNAME
  2

  9
$UCSORG
 10
0.0
 20
0.0
 30
0.0
  9
$UCSXDIR
 10
1.0
 20
0.0
 30
0.0
  9
$UCSYDIR
 10
0.0
 20
1.0
 30
0.0
  9
$PUCSNAME
  2

  9
$PUCSORG
 10
0.0
 20
0.0
 30
0.0
  9
$PUCSXDIR
 10
1.0
 20
0.0
 30
0.0
  9
$PUCSYDIR
 10
0.0
 20
1.0
 30
0.0
  9
$USERI1
 70
     0
  9
$USERI2
 70
     0
  9
$USERI3
 70
     0
  9
$USERI4
 70
     0
  9
$USERI5
 70
     0
  9
$USERR1
 40
0.0
  9
$USERR2
 40
0.0
  9
$USERR3
 40
0.0
  9
$USERR4
 40
0.0
  9
$USERR5
 40
0.0
  9
$WORLDVIEW
 70
     1
  9
$SHADEDGE
 70
     3
  9
$SHADEDIF
 70
    70
  9
$TILEMODE
 70
     1
  9
$MAXACTVP
 70
    48
  9
$PINSBASE
 10
0.0
 20
0.0
 30
0.0
  9
$PLIMCHECK
 70
     0
  9
$PEXTMIN
 10
1.000000000000000E+20
 20
1.000000000000000E+20
 30
1.000000000000000E+20
  9
$PEXTMAX
 10
-1.000000000000000E+20
 20
-1.000000000000000E+20
 30
-1.000000000000000E+20
  9
$PLIMMIN
 10
0.0
 20
0.0
  9
$PLIMMAX
 10
420.0
 20
297.0
  9
$UNITMODE
 70
     0
  9
$VISRETAIN
 70
     1
  9
$PLINEGEN
 70
     0
  9
$PSLTSCALE
 70
     1
  9
$TREEDEPTH
 70
  3020
  9
$PICKSTYLE
 70
     1
  9
$CMLSTYLE
  2
STANDARD
  9
$CMLJUST
 70
     0
  9
$CMLSCALE
 40
20.0
  9
$PROXYGRAPHICS
 70
     1
  9
$MEASUREMENT
 70
     1
  0
ENDSEC
  0
SECTION
  2
CLASSES
  0
CLASS
  1
ACDBDICTIONARYWDFLT
  2
AcDbDictionaryWithDefault
  3
AutoCAD 2000
 90
        0
280
     0
281
     0
  0
CLASS
  1
ACDBPLACEHOLDER
  2
AcDbPlaceHolder
  3
AutoCAD 2000
 90
        0
280
     0
281
     0
  0
CLASS
  1
LAYOUT
  2
AcDbLayout
  3
AutoCAD 2000
 90
        0
280
     0
281
     0
  0
CLASS
  1
DICTIONARYVAR
  2
AcDbDictionaryVar
  3
AutoCAD 2000
 90
        0
280
     0
281
     0
  0
CLASS
  1
LONG_TRANSACTION
  2
AcDbLongTransaction
  3
AutoCAD 2000
 90
        0
280
     0
281
     0
  0
CLASS
  1
LWPOLYLINE
  2
AcDbPolyline
  3
AutoCAD 2000
 90
        0
280
     0
281
     1
  0
CLASS
  1
HATCH
  2
AcDbHatch
  3
AutoCAD 2000
 90
        0
280
     0
281
     1
  0
CLASS
  1
XRECORD
  2
AcDbXrecord
  3
AutoCAD 2000
 90
        0
280
     0
281
     0
  0
CLASS
  1
LONG_TRANSACTION
  2
AcDbLongTransaction
  3
AutoCAD 2000
 90
        0
280
     0
281
     0
  0
CLASS
  1
LWPOLYLINE
  2
AcDbPolyline
  3
AutoCAD 2000
 90
        0
280
     0
281
     1
  0
CLASS
  1
HATCH
  2
AcDbHatch
  3
AutoCAD 2000
 90
        0
280
     0
281
     1
  0
CLASS
  1
XRECORD
  2
AcDbXrecord
  3
AutoCAD 2000
 90
        0
280
     0
281
     0
  0
CLASS
  1
LONG_TRANSACTION
  2
AcDbLongTransaction
  3
AutoCAD 2000
 90
        0
280
     0
281
     0
  0
CLASS
  1
LWPOLYLINE
  2
AcDbPolyline
  3
AutoCAD 2000
 90
        0
280
     0
281
     1
  0
CLASS
  1
HATCH
  2
AcDbHatch
  3
AutoCAD 2000
 90
        0
280
     0
281
     1
  0
CLASS
  1
XRECORD
  2
AcDbXrecord
  3
AutoCAD 2000
 90
        0
280
     0
281
     0
  0
ENDSEC
  0
SECTION
  2
TABLES
  0
TABLE
  2
VPORT
  5
8
330
0
100
AcDbSymbolTable
 70
     2
  0
VPORT
  5
178
330
8
100
AcDbSymbolTableRecord
100
AcDbViewportTableRecord
  2
*ACTIVE
 70
     0
 10
0.0
 20
0.0
 11
1.0
 21
1.0
 12
9.357965124341991
 22
10.91467902449715
 13
0.0
 23
0.0
 14
10.0
 24
10.0
 15
10.0
 25
10.0
 16
0.0
 26
0.0
 36
1.0
 17
0.0
 27
0.0
 37
0.0
 40
12.84837441934357
 41
1.674961119751166
 42
50.0
 43
0.0
 44
0.0
 50
0.0
 51
0.0
 71
     0
 72
  2000
 73
     1
 74
     3
 75
     0
 76
     0
 77
     0
 78
     0
  0
ENDTAB
  0
TABLE
  2
LTYPE
  5
5
330
0
100
AcDbSymbolTable
 70
     1
  0
LTYPE
  5
14
330
5
100
AcDbSymbolTableRecord
100
AcDbLinetypeTableRecord
  2
BYBLOCK
 70
     0
  3

 72
    65
 73
     0
 40
0.0
  0
LTYPE
  5
15
330
5
100
AcDbSymbolTableRecord
100
AcDbLinetypeTableRecord
  2
BYLAYER
 70
     0
  3

 72
    65
 73
     0
 40
0.0
  0
LTYPE
  5
16
330
5
100
AcDbSymbolTableRecord
100
AcDbLinetypeTableRecord
  2
CONTINUOUS
 70
     0
  3
Solid line
 72
    65
 73
     0
 40
0.0
  0
ENDTAB
  0
TABLE
  2
LAYER
  5
2
330
0
100
AcDbSymbolTable
 70
     2
  0
LAYER
  5
10
330
2
100
AcDbSymbolTableRecord
100
AcDbLayerTableRecord
  2
0
 70
     0
 62
     7
  6
CONTINUOUS
  0
LAYER
  5
30
330
2
100
AcDbSymbolTableRecord
100
AcDbLayerTableRecord
  2
REMARKS
 70
     0
 62
     5
  6
CONTINUOUS
  0
ENDTAB
  0
TABLE
  2
STYLE
  5
3
330
0
100
AcDbSymbolTable
 70
     1
  0
STYLE
  5
11
330
3
100
AcDbSymbolTableRecord
100
AcDbTextStyleTableRecord
  2
STANDARD
 70
     0
 40
0.0
 41
1.0
 50
0.0
 71
     0
 42
2.5
  3
ARIAL.TTF
  4

1001
ACAD
1000
Arial
1071
       34
  0
ENDTAB
  0
TABLE
  2
VIEW
  5
6
330
0
100
AcDbSymbolTable
 70
     0
  0
ENDTAB
  0
TABLE
  2
UCS
  5
7
330
0
100
AcDbSymbolTable
 70
     0
  0
ENDTAB
  0
TABLE
  2
APPID
  5
9
330
0
100
AcDbSymbolTable
 70
     1
  0
APPID
  5
12
330
9
100
AcDbSymbolTableRecord
100
AcDbRegAppTableRecord
  2
ACAD
 70
     0
  0
ENDTAB
  0
TABLE
  2
DIMSTYLE
  5
A
330
0
100
AcDbSymbolTable
 70
     1
  0
DIMSTYLE
105
27
330
A
100
AcDbSymbolTableRecord
100
AcDbDimStyleTableRecord
  2
ISO-25
 70
     0
  3

  4

  5

  6

  7

 40
1.0
 41
2.5
 42
0.625
 43
3.75
 44
1.25
 45
0.0
 46
0.0
 47
0.0
 48
0.0
140
2.5
141
2.5
142
0.0
143
0.03937007874016
144
1.0
145
0.0
146
1.0
147
0.625
 71
     0
 72
     0
 73
     0
 74
     0
 75
     0
 76
     0
 77
     1
 78
     8
170
     0
171
     3
172
     1
173
     0
174
     0
175
     0
176
     0
177
     0
178
     0
270
     2
271
     2
272
     2
273
     2
274
     3
340
11
275
     0
280
     0
281
     0
282
     0
283
     0
284
     8
285
     0
286
     0
287
     3
288
     0
  0
ENDTAB
  0
TABLE
  2
BLOCK_RECORD
  5
1
330
0
100
AcDbSymbolTable
 70
     1
  0
BLOCK_RECORD
  5
1F
102
{ACAD_XDICTIONARY
360
FC
102
}
330
1
100
AcDbSymbolTableRecord
100
AcDbBlockTableRecord
  2
*MODEL_SPACE
  0
BLOCK_RECORD
  5
1B
102
{ACAD_XDICTIONARY
360
FE
102
}
330
1
100
AcDbSymbolTableRecord
100
AcDbBlockTableRecord
  2
*PAPER_SPACE
  0
ENDTAB
  0
ENDSEC
  0
SECTION
  2
BLOCKS
  0
BLOCK
  5
20
330
1F
100
AcDbEntity
  8
0
100
AcDbBlockBegin
  2
*MODEL_SPACE
 70
     0
 10
0.0
 20
0.0
 30
0.0
  3
*MODEL_SPACE
  1

  0
ENDBLK
  5
21
330
1F
100
AcDbEntity
  8
0
100
AcDbBlockEnd
  0
BLOCK
  5
1C
330
1B
100
AcDbEntity
 67
     1
  8
0
100
AcDbBlockBegin
  2
*PAPER_SPACE
 70
     0
 10
0.0
 20
0.0
 30
0.0
  3
*PAPER_SPACE
  1

  0
ENDBLK
  5
1D
330
1B
100
AcDbEntity
 67
     1
  8
0
100
AcDbBlockEnd
  0
ENDSEC
  0
SECTION
  2
ENTITIES
  0
LINE
  5
9F
330
1F
100
AcDbEntity
  8
0
  6
CONTINUOUS
100
AcDbLine
 10
14.16016805578876
 20
7.68297635548403
 30
0.0
 11
12.82616066521421
 21
4.782960289017618
 31
0.0
  0
LINE
  5
A0
330
1F
100
AcDbEntity
  8
0
  6
CONTINUOUS
100
AcDbLine
 10
12.82607361867427
 20
4.782997424621316
 30
0.0
 11
7.23636360150005
 21
4.671203224277832
 31
0.0
  0
LINE
  5
A1
330
1F
100
AcDbEntity
  8
0
  6
CONTINUOUS
100
AcDbLine
 10
6.413276762112188
 20
4.671203224277832
 30
0.0
 11
5.578977802570019
 21
4.687889203468674
 31
0.0
  0
ARC
  5
A2
330
1F
100
AcDbEntity
  8
0
  6
CONTINUOUS
100
AcDbCircle
 10
6.411010548642904
 20
4.55789255081343
 30
0.0
 40
0.1133333333333343
100
AcDbArc
 50
53.76087159364906
 51
88.85423716182712
  0
ARC
  5
A3
330
1F
100
AcDbEntity
  8
0
  6
CONTINUOUS
100
AcDbCircle
 10
7.238629814969334
 20
4.55789255081343
 30
0.0
 40
0.1133333333333343
100
AcDbArc
 50
91.14576283817291
 51
126.239128406352
  0
ARC
  5
A4
330
1F
100
AcDbEntity
  8
0
  6
CONTINUOUS
100
AcDbCircle
 10
6.824820181806119
 20
5.122482302315638
 30
0.0
 40
0.5866666666666674
100
AcDbArc
 50
233.760871593647
 51
252.8152040989118
  0
ARC
  5
A5
330
1F
100
AcDbEntity
  8
0
  6
CONTINUOUS
100
AcDbCircle
 10
6.824820181806119
 20
5.122482302315638
 30
0.0
 40
0.5866666666666674
100
AcDbArc
 50
287.1847959010867
 51
306.2391284063513
  0
LWPOLYLINE
  5
A6
330
1F
100
AcDbEntity
  8
0
  6
CONTINUOUS
100
AcDbPolyline
 90
       56
 70
   128
 43
0.0
 10
4.867606851722227
 20
4.709354128546753
 10
4.85748980388953
 20
4.781736535468331
 10
4.843854620012724
 20
4.879273443222334
 10
4.830505066029102
 20
4.974752454491994
 10
4.817441477081299
 20
5.068172708016704
 10
4.804664172461059
 20
5.15953335548995
 10
4.792393989839052
 20
5.247256988701799
 10
4.780400525810543
 20
5.332992333770237
 10
4.76868404128178
 20
5.41673862692278
 10
4.757244784408605
 20
5.49849511856372
 10
4.745858090004833
 20
5.579868219153407
 10
4.734760537654766
 20
5.659167943092733
 10
4.723952353021658
 20
5.736393542301502
 10
4.713433749975592
 20
5.811544285780358
 10
4.703204931080625
 20
5.88461945996176
 10
4.693266088070862
 20
5.955618369031593
 10
4.68361740231503
 20
6.024540335223044
 10
4.674259045269284
 20
6.091384699084341
 10
4.665191178917886
 20
6.156150819721914
 10
4.656413956201507
 20
6.218838075020513
 10
4.647927521432833
 20
6.279445861841745
 10
4.639732010699262
 20
6.337973596202484
 10
4.631827552252339
 20
6.394420713434549
 10
4.624214266883882
 20
6.448786668327
 10
4.617491306648501
 20
6.496793434400305
 10
4.611013190872389
 20
6.543050613782172
 10
4.604779997589114
 20
6.587557830110235
 10
4.598791800492657
 20
6.630314721048058
 10
4.593048669137246
 20
6.671320938334508
 10
4.58755066912856
 20
6.710576147826855
 10
4.58184465312183
 20
6.751315813040475
 10
4.576429240215894
 20
6.789979944988125
 10
4.571304500549194
 20
6.826568170026077
 10
4.566470499703278
 20
6.861080134507348
 10
4.561927298923853
 20
6.893515504810827
 10
4.55856168366267
 20
6.917543439268516
 10
4.555375654260028
 20
6.94028905728066
 10
4.552369235257765
 20
6.961752223091401
 10
4.549536750477761
 20
6.981973495898566
 10
4.546640146101532
 20
7.002652354645152
 10
4.542670402036371
 20
7.03099207014455
 10
4.538392207011973
 20
7.061533423416094
 10
4.533805506067968
 20
7.094276726576015
 10
4.528910240634298
 20
7.129222314257911
 10
4.523706348585886
 20
7.166370543617368
 10
4.518193764300587
 20
7.205721794335821
 10
4.512372418720353
 20
7.247276468623452
 10
4.506242239415726
 20
7.291034991220921
 10
4.499803150653654
 20
7.336997809399728
 10
4.49305507346864
 20
7.38516539296096
 10
4.485997925737366
 20
7.435538234232172
 10
4.478631622256676
 20
7.488116848062205
 10
4.470956074825107
 20
7.542901771813595
 10
4.462971192327904
 20
7.599893565352392
 10
4.455379894261062
 20
7.65407521354257
 10
4.451330536381227
 20
7.682976355484032
  0
LINE
  5
A7
330
1F
100
AcDbEntity
  8
0
  6
CONTINUOUS
100
AcDbLine
 10
14.69148684847278
 20
8.016309688817367
 30
0.0
 11
14.69148684847278
 21
7.682976355484032
 31
0.0
  0
LINE
  5
A8
330
1F
100
AcDbEntity
  8
0
  6
CONTINUOUS
100
AcDbLine
 10
14.69148684847278
 20
8.016309688817367
 30
0.0
 11
9.358153515139333
 21
8.016309688817367
 31
0.0
  0
LINE
  5
A9
330
1F
100
AcDbEntity
  8
0
  6
CONTINUOUS
100
AcDbLine
 10
9.358153515139333
 20
8.016309688817367
 30
0.0
 11
9.358153515139333
 21
7.682976355484032
 31
0.0
  0
LINE
  5
AA
330
1F
100
AcDbEntity
  8
0
  6
CONTINUOUS
100
AcDbLine
 10
9.358153515139333
 20
7.682976355484032
 30
0.0
 11
14.69148684847278
 21
7.682976355484032
 31
0.0
  0
LINE
  5
AB
330
1F
100
AcDbEntity
  8
0
  6
CONTINUOUS
100
AcDbLine
 10
4.024820181806118
 20
8.016309688817367
 30
0.0
 11
4.024820181806118
 21
7.682976355484032
 31
0.0
  0
LINE
  5
AC
330
1F
100
AcDbEntity
  8
0
  6
CONTINUOUS
100
AcDbLine
 10
9.358153515139333
 20
8.016309688817367
 30
0.0
 11
4.024820181806118
 21
8.016309688817367
 31
0.0
  0
LINE
  5
AD
330
1F
100
AcDbEntity
  8
0
  6
CONTINUOUS
100
AcDbLine
 10
4.024820181806118
 20
7.682976355484032
 30
0.0
 11
9.358153515139333
 21
7.682976355484032
 31
0.0
  0
LINE
  5
AE
330
1F
100
AcDbEntity
  8
0
  6
CONTINUOUS
100
AcDbLine
 10
9.838153515139453
 20
7.667629815724454
 30
0.0
 11
11.54482018180612
 21
7.667629815724454
 31
0.0
  0
LINE
  5
AF
330
1F
100
AcDbEntity
  8
0
  6
CONTINUOUS
100
AcDbLine
 10
11.54482018180612
 20
7.682976355484032
 30
0.0
 11
11.54482018180612
 21
7.667629815724454
 31
0.0
  0
LINE
  5
B0
330
1F
100
AcDbEntity
  8
0
  6
CONTINUOUS
100
AcDbLine
 10
9.838153515139453
 20
7.682976355484032
 30
0.0
 11
9.838153515139453
 21
7.667629815724454
 31
0.0
  0
LINE
  5
B1
330
1F
100
AcDbEntity
  8
0
  6
CONTINUOUS
100
AcDbLine
 10
9.838153515139453
 20
7.524177835892843
 30
0.0
 11
11.54482018180612
 21
7.524177835892842
 31
0.0
  0
LINE
  5
B2
330
1F
100
AcDbEntity
  8
0
  6
CONTINUOUS
100
AcDbLine
 10
11.54482018180612
 20
7.667629815724454
 30
0.0
 11
11.54482018180612
 21
7.524177835892842
 31
0.0
  0
LINE
  5
B3
330
1F
100
AcDbEntity
  8
0
  6
CONTINUOUS
100
AcDbLine
 10
9.838153515139453
 20
7.667629815724454
 30
0.0
 11
9.838153515139453
 21
7.524177835892843
 31
0.0
  0
LWPOLYLINE
  5
B4
330
1F
100
AcDbEntity
  8
0
  6
CONTINUOUS
100
AcDbPolyline
 90
        5
 70
   128
 43
0.0
 10
4.538609476411316
 20
7.682976355484032
 10
4.586637498982053
 20
7.310615033290694
 10
4.664860144564217
 20
6.704106315932587
 10
4.793978637697321
 20
5.702835169350279
 10
4.923067607685391
 20
4.701561608739651
  0
LWPOLYLINE
  5
B5
330
1F
100
AcDbEntity
  8
0
  6
CONTINUOUS
100
AcDbPolyline
 90
       14
 70
   128
 43
0.0
 10
9.619309026391771
 20
4.732017684563539
 10
8.097473014804252
 20
4.698803207708666
 10
7.843828655184033
 20
4.693218461919582
 10
7.590182181689085
 20
4.687583794183782
 10
7.336502475172457
 20
4.682375743059809
 10
7.082758416487193
 20
4.67807084710621
 10
6.82891888648634
 20
4.675145644881523
 10
6.574952766022942
 20
4.674076674944298
 10
6.36861475490912
 20
4.674979664800915
 10
6.162191617433636
 20
4.677342888154129
 10
5.955714518648136
 20
4.680691556157063
 10
5.74921462360427
 20
4.684550879962841
 10
5.33615173507616
 20
4.69282564379181
 10
4.923067607685391
 20
4.701561608739651
  0
LINE
  5
B6
330
1F
100
AcDbEntity
  8
0
  6
CONTINUOUS
100
AcDbLine
 10
9.521781268073622
 20
7.682976355484032
 30
0.0
 11
9.619309026391771
 21
4.732017684563539
 31
0.0
  0
ARC
  5
B7
330
1F
100
AcDbEntity
  8
0
  6
CONTINUOUS
100
AcDbCircle
 10
6.421812823279511
 20
7.65872912681589
 30
0.0
 40
0.1868286393404743
100
AcDbArc
 50
172.5327760288983
 51
183.6393311648879
  0
LWPOLYLINE
  5
B8
330
1F
100
AcDbEntity
  8
0
  6
CONTINUOUS
100
AcDbPolyline
 90
       59
 70
   128
 43
0.0
 10
6.539700149864259
 20
7.682976355484032
 10
6.541083099678512
 20
7.677234914759339
 10
6.543069719226878
 20
7.667172747430339
 10
6.54452006322354
 20
7.657039266189749
 10
6.545429037282312
 20
7.646870065260009
 10
6.545793448598661
 20
7.63670086433027
 10
6.54561201716455
 20
7.62656738308968
 10
6.544885380264505
 20
7.616505215760681
 10
6.54361609023714
 20
7.606549706072994
 10
6.54180860550997
 20
7.596735823117491
 10
6.539469274939019
 20
7.587098038515977
 10
6.53660631550824
 20
7.577670205338368
 10
6.533229783467046
 20
7.568485439192547
 10
6.529351539007377
 20
7.55957600190458
 10
6.524985204604343
 20
7.550973188197884
 10
6.520146117166785
 20
7.542707215769357
 10
6.514851274165812
 20
7.534807119148627
 10
6.509119273930576
 20
7.527300647713201
 10
6.502970250320956
 20
7.520214168217767
 10
6.496425802006644
 20
7.513572572180006
 10
6.48950891660103
 20
7.507399188448229
 10
6.48224388991637
 20
7.501715701257946
 10
6.474656240623858
 20
7.496542074065196
 10
6.466772620618367
 20
7.491896479424185
 10
6.458620721402692
 20
7.487795235155518
 10
6.450229176820137
 20
7.48425274702927
 10
6.441627462477102
 20
7.481281458164179
 10
6.432845792208933
 20
7.478891805320755
 10
6.423915011952725
 20
7.477092182241761
 10
6.414866491399845
 20
7.475888910168901
 10
6.405732013808748
 20
7.475286215639212
 10
6.396543664365118
 20
7.475286215639212
 10
6.387333717481492
 20
7.475888910168902
 10
6.378134523432196
 20
7.477092182241763
 10
6.368978394721828
 20
7.478891805320755
 10
6.359897492586432
 20
7.481281458164181
 10
6.35092371402594
 20
7.484252747029271
 10
6.342088579764839
 20
7.48779523515552
 10
6.333423123534448
 20
7.491896479424187
 10
6.324957783065817
 20
7.496542074065199
 10
6.316722293176084
 20
7.501715701257947
 10
6.308745581323847
 20
7.507399188448231
 10
6.30105566600041
 20
7.513572572180008
 10
6.293679558313806
 20
7.520214168217768
 10
6.2866431671113
 20
7.527300647713204
 10
6.27997120797362
 20
7.53480711914863
 10
6.273687116400573
 20
7.54270721576936
 10
6.267812965492995
 20
7.550973188197887
 10
6.262369388420189
 20
7.559576001904584
 10
6.257375505945161
 20
7.568485439192549
 10
6.252848859262234
 20
7.577670205338371
 10
6.248805348382976
 20
7.58709803851598
 10
6.245259176286824
 20
7.596735823117494
 10
6.242222799032596
 20
7.606549706072998
 10
6.23970688200614
 20
7.616505215760684
 10
6.237720262457775
 20
7.626567383089684
 10
6.236269918461115
 20
7.636700864330274
 10
6.235360944402341
 20
7.646870065260011
 10
6.235360944402341
 20
7.646870065260011
  0
LWPOLYLINE
  5
B9
330
1F
100
AcDbEntity
  8
0
  6
CONTINUOUS
100
AcDbPolyline
 90
        4
 70
   128
 43
0.0
 10
12.57503265569454
 20
4.784962559360218
 10
11.09718834926554
 20
4.757580234860204
 10
10.3582547244879
 20
4.744453745857367
 10
9.619309026391771
 20
4.732017684563539
  0
LWPOLYLINE
  5
BA
330
1F
100
AcDbEntity
  8
0
  6
CONTINUOUS
100
AcDbPolyline
 90
        4
 70
   128
 43
0.0
 10
12.57503265569454
 20
4.784962559360218
 10
12.93084308102181
 20
5.630663256708868
 10
13.28667906423108
 20
6.476353407345373
 10
13.79442830047254
 20
7.682976355484032
  0
LWPOLYLINE
  5
BB
330
1F
100
AcDbEntity
  8
0
  6
CONTINUOUS
100
AcDbPolyline
 90
       17
 70
   128
 43
0.0
 10
12.8260735633871
 20
4.783000355858088
 10
12.82616549809842
 20
4.782999630708896
 10
12.82485482688128
 20
4.78300996590491
 10
12.8214001859872
 20
4.783037195856048
 10
12.81580369130137
 20
4.783081284412333
 10
12.808067458709
 20
4.783142195423787
 10
12.79819360409527
 20
4.783219892740428
 10
12.78591985348888
 20
4.78331641223892
 10
12.77142359755212
 20
4.783430304796763
 10
12.75471141490745
 20
4.783561459800704
 10
12.73578988417729
 20
4.783709766637487
 10
12.71466558398408
 20
4.783875114693858
 10
12.69113609616238
 20
4.784057954915859
 10
12.66533976220828
 20
4.784257128847215
 10
12.63734487933607
 20
4.784473627134207
 10
12.60721974476005
 20
4.784708440423115
 10
12.57503265569454
 20
4.784962559360218
  0
LWPOLYLINE
  5
BC
330
1F
100
AcDbEntity
  8
0
  6
CONTINUOUS
100
AcDbPolyline
 90
        9
 70
   128
 43
0.0
 10
4.923067607685391
 20
4.701561608739651
 10
4.909782944313533
 20
4.702296774696752
 10
4.898238598648068
 20
4.703131107156482
 10
4.888549382361722
 20
4.704057060714143
 10
4.880692146932382
 20
4.705068371157849
 10
4.874674369017316
 20
4.706157813688214
 10
4.870490697717427
 20
4.707320168093125
 10
4.868142040977568
 20
4.708550715167598
 10
4.867815052561507
 20
4.709383226914408
  0
LWPOLYLINE
  5
BD
330
1F
100
AcDbEntity
  8
0
  6
CONTINUOUS
100
AcDbPolyline
 90
       36
 70
   128
 43
0.0
 10
6.245082861664887
 20
7.682976355484032
 10
6.244762487286221
 20
7.680007871650026
 10
6.244035850386177
 20
7.669945704321026
 10
6.243854418952064
 20
7.659812223080436
 10
6.244218830268414
 20
7.649643022150696
 10
6.245127804327186
 20
7.639473821220957
 10
6.246578148323848
 20
7.629340339980367
 10
6.248564767872215
 20
7.619278172651366
 10
6.251080684898671
 20
7.609322662963681
 10
6.254117062152898
 20
7.599508780008178
 10
6.257663234249051
 20
7.589870995406664
 10
6.261706745128307
 20
7.580443162229054
 10
6.266233391811237
 20
7.571258396083233
 10
6.271227274286266
 20
7.562348958795267
 10
6.276670851359071
 20
7.55374614508857
 10
6.282545002266648
 20
7.545480172660044
 10
6.288829093839696
 20
7.537580076039314
 10
6.295501052977375
 20
7.530073604603888
 10
6.302537444179881
 20
7.522987125108453
 10
6.309913551866486
 20
7.516345529070692
 10
6.317603467189924
 20
7.510172145338915
 10
6.325580179042161
 20
7.504488658148631
 10
6.333815668931894
 20
7.499315030955883
 10
6.342281009400522
 20
7.494669436314871
 10
6.350946465630915
 20
7.490568192046205
 10
6.359781599892018
 20
7.487025703919955
 10
6.368755378452508
 20
7.484054415054866
 10
6.377836280587906
 20
7.481664762211441
 10
6.386992409298272
 20
7.479865139132449
 10
6.396191603347572
 20
7.478661867059588
 10
6.4054015502312
 20
7.478059172529899
 10
6.414589899674828
 20
7.478059172529899
 10
6.423724377265921
 20
7.478661867059588
 10
6.4327728978188
 20
7.479865139132449
 10
6.441703678075009
 20
7.481664762211442
 10
6.446584077245704
 20
7.482914830897638
  0
LINE
  5
BE
330
1F
100
AcDbEntity
  8
0
  6
CONTINUOUS
100
AcDbLine
 10
6.824820181806119
 20
4.562006314129406
 30
0.0
 11
6.998153515139453
 21
4.562006314129406
 31
0.0
  0
LINE
  5
BF
330
1F
100
AcDbEntity
  8
0
  6
CONTINUOUS
100
AcDbLine
 10
6.651486848472787
 20
4.562006314129406
 30
0.0
 11
6.824820181806119
 21
4.562006314129406
 31
0.0
  0
LINE
  5
C0
330
1F
100
AcDbEntity
  8
0
  6
CONTINUOUS
100
AcDbLine
 10
6.824820181806119
 20
4.671203224277832
 30
0.0
 11
7.23636360150005
 21
4.671203224277832
 31
0.0
  0
LINE
  5
C1
330
1F
100
AcDbEntity
  8
0
  6
CONTINUOUS
100
AcDbLine
 10
6.413276762112188
 20
4.671203224277832
 30
0.0
 11
6.824820181806119
 21
4.671203224277832
 31
0.0
  0
LINE
  5
C2
330
1F
100
AcDbEntity
  8
0
  6
CONTINUOUS
100
AcDbLine
 10
7.171632064838146
 20
4.649302320104264
 30
0.0
 11
6.47800829877409
 21
4.649302320104264
 31
0.0
  0
LINE
  5
C3
330
1F
100
AcDbEntity
  8
0
100
AcDbLine
 10
10.69148684847278
 20
11.47429639252169
 30
0.0
 11
10.69148684847278
 21
11.48168390539809
 31
0.0
  0
ARC
  5
C4
330
1F
100
AcDbEntity
  8
0
100
AcDbCircle
 10
4.467547713399413
 20
14.40762972585504
 30
0.0
 40
8.345699328856307
100
AcDbArc
 50
346.0139332757865
 51
13.98606672421265
  0
ARC
  5
C5
330
1F
100
AcDbEntity
  8
0
100
AcDbCircle
 10
6.582623970303039
 20
14.40762972585502
 30
0.0
 40
7.676754627710833
100
AcDbArc
 50
341.4123081038453
 51
18.58769189615393
  0
ARC
  5
C6
330
1F
100
AcDbEntity
  8
0
100
AcDbCircle
 10
12.77736899142647
 20
15.66883001128515
 30
0.0
 40
7.892332555722457
100
AcDbArc
 50
174.5721877996508
 51
186.7233904456519
  0
ARC
  5
C7
330
1F
100
AcDbEntity
  8
0
100
AcDbCircle
 10
12.53807584599038
 20
15.65745347722293
 30
0.0
 40
8.104040686086237
100
AcDbArc
 50
171.4459739230845
 51
188.5742244483543
  0
LINE
  5
C8
330
1F
100
AcDbEntity
  8
0
  6
CONTINUOUS
100
AcDbLine
 10
14.65236524255055
 20
11.94103395634097
 30
0.0
 11
13.8589353247754
 21
11.96062039059367
 31
0.0
  0
LINE
  5
C9
330
1F
100
AcDbEntity
  8
0
  6
CONTINUOUS
100
AcDbLine
 10
14.65236524255055
 20
11.94103395634097
 30
0.0
 11
14.65236524255055
 21
16.87422549536908
 31
0.0
  0
LINE
  5
CA
330
1F
100
AcDbEntity
  8
0
  6
CONTINUOUS
100
AcDbLine
 10
14.65236524255055
 20
16.87422549536908
 30
0.0
 11
13.8589353247754
 21
16.85463906111637
 31
0.0
  0
ARC
  5
CB
330
1F
100
AcDbEntity
  8
0
  6
CONTINUOUS
100
AcDbCircle
 10
6.586834052218176
 20
14.40762116633831
 30
0.0
 40
7.672767003871062
100
AcDbArc
 50
341.4022263341455
 51
18.59777366585372
  0
LINE
  5
CC
330
1F
100
AcDbEntity
  8
0
  6
CONTINUOUS
100
AcDbLine
 10
4.524184108608547
 20
16.86286405593217
 30
0.0
 11
4.063941787728349
 21
16.87422549536908
 31
0.0
  0
LINE
  5
CD
330
1F
100
AcDbEntity
  8
0
  6
CONTINUOUS
100
AcDbLine
 10
4.063941787728349
 20
14.6668375141535
 30
0.0
 11
4.063941787728349
 21
16.87422549536908
 31
0.0
  0
LINE
  5
CE
330
1F
100
AcDbEntity
  8
0
  6
CONTINUOUS
100
AcDbLine
 10
4.524609547650298
 20
14.44921785156513
 30
0.0
 11
4.063941787728349
 21
14.6668375141535
 31
0.0
  0
ARC
  5
CF
330
1F
100
AcDbEntity
  8
0
  6
CONTINUOUS
100
AcDbCircle
 10
12.53838132825103
 20
15.65748705618795
 30
0.0
 40
8.104347760455034
100
AcDbArc
 50
171.4460606080739
 51
188.5741372016195
  0
LINE
  5
D0
330
1F
100
AcDbEntity
  8
0
  6
CONTINUOUS
100
AcDbLine
 10
9.358153515139333
 20
11.27429639252169
 30
0.0
 11
4.024820181806118
 21
13.94096305918836
 31
0.0
  0
LINE
  5
D1
330
1F
100
AcDbEntity
  8
0
  6
CONTINUOUS
100
AcDbLine
 10
14.69148684847278
 20
11.27429639252169
 30
0.0
 11
9.358153515139333
 21
11.27429639252169
 31
0.0
  0
LINE
  5
D2
330
1F
100
AcDbEntity
  8
0
  6
CONTINUOUS
100
AcDbLine
 10
9.858153515139454
 20
11.94096305918836
 30
0.0
 11
9.515532166805861
 21
11.94096305918836
 31
0.0
  0
LINE
  5
D3
330
1F
100
AcDbEntity
  8
0
  6
CONTINUOUS
100
AcDbLine
 10
9.515532166805861
 20
11.94096305918836
 30
0.0
 11
4.05815351513945
 21
14.66965238502162
 31
0.0
  0
LINE
  5
D4
330
1F
100
AcDbEntity
  8
0
  6
CONTINUOUS
100
AcDbLine
 10
4.05815351513945
 20
14.66965238502162
 30
0.0
 11
4.05815351513945
 21
16.87429639252169
 31
0.0
  0
LINE
  5
D5
330
1F
100
AcDbEntity
  8
0
  6
CONTINUOUS
100
AcDbLine
 10
4.05815351513945
 20
16.87429639252169
 30
0.0
 11
14.65815351513945
 21
16.87429639252169
 31
0.0
  0
LINE
  5
D6
330
1F
100
AcDbEntity
  8
0
  6
CONTINUOUS
100
AcDbLine
 10
14.65815351513945
 20
11.94096305918836
 30
0.0
 11
14.65815351513945
 21
16.87429639252169
 31
0.0
  0
LINE
  5
D7
330
1F
100
AcDbEntity
  8
0
  6
CONTINUOUS
100
AcDbLine
 10
14.65815351513945
 20
11.94096305918836
 30
0.0
 11
11.52482018180612
 21
11.94096305918836
 31
0.0
  0
LINE
  5
D8
330
1F
100
AcDbEntity
  8
0
  6
CONTINUOUS
100
AcDbLine
 10
11.52482018180612
 20
11.94096305918836
 30
0.0
 11
11.52482018180612
 21
11.47429639252169
 31
0.0
  0
LINE
  5
D9
330
1F
100
AcDbEntity
  8
0
  6
CONTINUOUS
100
AcDbLine
 10
9.858153515139454
 20
11.47429639252169
 30
0.0
 11
11.52482018180612
 21
11.47429639252169
 31
0.0
  0
LINE
  5
DA
330
1F
100
AcDbEntity
  8
0
  6
CONTINUOUS
100
AcDbLine
 10
9.858153515139454
 20
11.94096305918836
 30
0.0
 11
9.858153515139454
 21
11.47429639252169
 31
0.0
  0
LINE
  5
DB
330
1F
100
AcDbEntity
  8
0
  6
CONTINUOUS
100
AcDbLine
 10
4.024820181806118
 20
13.94096305918836
 30
0.0
 11
4.024820181806118
 21
17.27429639252169
 31
0.0
  0
LINE
  5
DC
330
1F
100
AcDbEntity
  8
0
  6
CONTINUOUS
100
AcDbLine
 10
14.69148684847278
 20
17.27429639252169
 30
0.0
 11
14.69148684847278
 21
11.27429639252169
 31
0.0
  0
LINE
  5
DD
330
1F
100
AcDbEntity
  8
0
  6
CONTINUOUS
100
AcDbLine
 10
4.024820181806118
 20
17.27429639252169
 30
0.0
 11
14.69148684847278
 21
17.27429639252169
 31
0.0
  0
LWPOLYLINE
  5
DE
330
1F
100
AcDbEntity
  8
0
  6
CONTINUOUS
100
AcDbPolyline
 90
       14
 70
   128
 43
0.0
 10
4.920424346514604
 20
16.41537807866412
 10
5.346643743217695
 20
16.41460800124784
 10
5.77287497023483
 20
16.4139721194384
 10
6.199116752943847
 20
16.41351310682898
 10
6.625409199100852
 20
16.41327844084192
 10
7.05170680920057
 20
16.41328657206287
 10
7.477998836373258
 20
16.41353653439416
 10
7.986817472669594
 20
16.41411186931365
 10
8.495621556139612
 20
16.4149184998463
 10
9.004412180474716
 20
16.41590428162206
 10
9.51319043936631
 20
16.41701707027084
 10
10.0219574265058
 20
16.4182047214226
 10
11.29390735525145
 20
16.42135033848068
 10
12.5658348508529
 20
16.42466783333541
  0
LINE
  5
DF
330
1F
100
AcDbEntity
  8
0
  6
CONTINUOUS
100
AcDbLine
 10
13.8589353247754
 20
16.85463906111637
 30
0.0
 11
12.5658348508529
 21
16.42466783333541
 31
0.0
  0
ELLIPSE
  5
E0
330
1F
100
AcDbEntity
  8
0
  6
CONTINUOUS
100
AcDbEllipse
 10
14.65815351513945
 20
16.86962972585502
 30
0.0
 11
-0.0333333333333332
 21
0.0
 31
0.0
210
0.0
220
0.0
230
-1.0
 40
0.1399999999999584
 41
1.396263401595539
 42
1.570796326794896
  0
ELLIPSE
  5
E1
330
1F
100
AcDbEntity
  8
0
  6
CONTINUOUS
100
AcDbEllipse
 10
4.05815351513945
 20
16.86962972585502
 30
0.0
 11
-0.0333333333333315
 21
0.0
 31
0.0
210
0.0
220
0.0
230
-1.0
 40
0.1400000000000725
 41
1.570796326794896
 42
1.745329251994577
  0
LINE
  5
E2
330
1F
100
AcDbEntity
  8
0
  6
CONTINUOUS
100
AcDbLine
 10
4.524184108608547
 20
16.86286405593217
 30
0.0
 11
4.920424346514604
 21
16.41537807866412
 31
0.0
  0
ELLIPSE
  5
E3
330
1F
100
AcDbEntity
  8
0
  6
CONTINUOUS
100
AcDbEllipse
 10
14.65815351513945
 20
11.94562972585502
 30
0.0
 11
-0.0333333333333332
 21
0.0
 31
0.0
210
0.0
220
0.0
230
-1.0
 40
0.1400000000000117
 41
4.712388980384691
 42
4.886921905584181
  0
ELLIPSE
  5
E4
330
1F
100
AcDbEntity
  8
0
  6
CONTINUOUS
100
AcDbEllipse
 10
4.05815351513945
 20
14.67486987696912
 30
0.0
 11
-0.0332661143262332
 21
0.0169642373923758
 31
0.0
210
0.0
220
0.0
230
-0.9999999999999998
 40
0.1247231351289573
 41
4.474338367303925
 42
4.648871292503375
  0
LWPOLYLINE
  5
E5
330
1F
100
AcDbEntity
  8
0
  6
CONTINUOUS
100
AcDbPolyline
 90
       14
 70
   128
 43
0.0
 10
9.623419841058266
 20
12.39798258125589
 10
8.103445131016931
 20
13.1631701741837
 10
7.850112666998304
 20
13.29071387329699
 10
7.596779441859691
 20
13.41826860654047
 10
7.343413596377448
 20
13.54577417838271
 10
7.089983271327927
 20
13.67317039329229
 10
6.836456607487479
 20
13.80039705573777
 10
6.582801745632465
 20
13.92739397018773
 10
6.377512808666836
 20
14.02989513756149
 10
6.172137946267818
 20
14.13220822585963
 10
5.966709076350964
 20
14.23439378575491
 10
5.761258116831823
 20
14.33651236792004
 10
5.350295447370466
 20
14.54069855987988
 10
4.939312503249492
 20
14.74482586721256
  0
LINE
  5
E6
330
1F
100
AcDbEntity
  8
0
  6
CONTINUOUS
100
AcDbLine
 10
4.524609547650298
 20
14.44921785156513
 30
0.0
 11
4.939312503249492
 21
14.74482586721256
 31
0.0
  0
LINE
  5
E7
330
1F
100
AcDbEntity
  8
0
  6
CONTINUOUS
100
AcDbLine
 10
9.515532166805861
 20
11.94096305918836
 30
0.0
 11
9.623419841058266
 21
12.39798258125589
 31
0.0
  0
LWPOLYLINE
  5
E8
330
1F
100
AcDbEntity
  8
0
  6
CONTINUOUS
100
AcDbPolyline
 90
      107
 70
   128
 43
0.0
 10
6.554286923148387
 20
13.47897809243961
 10
6.553377949089615
 20
13.47784084775009
 10
6.551927605092952
 20
13.47697987904524
 10
6.549940985544585
 20
13.47639821050901
 10
6.547425068518132
 20
13.47609788527338
 10
6.544388691263904
 20
13.47607995824167
 10
6.54084251916775
 20
13.47634449238324
 10
6.536799008288493
 20
13.47689055851228
 10
6.532272361605565
 20
13.47771623855158
 10
6.527278479130536
 20
13.47881863226989
 10
6.521834902057731
 20
13.48019386746908
 10
6.515960751150155
 20
13.48183711358534
 10
6.509676659577104
 20
13.48374259865677
 10
6.503004700439424
 20
13.48590362959756
 10
6.49596830923692
 20
13.4883126157077
 10
6.488592201550316
 20
13.49096109533564
 10
6.480902286226879
 20
13.49383976560008
 10
6.472925574374642
 20
13.49693851506673
 10
6.464690084484907
 20
13.50024645926507
 10
6.456224744016278
 20
13.50375197892046
 10
6.447559287785887
 20
13.50744276076726
 10
6.438724153524784
 20
13.51130584079963
 10
6.429750374964294
 20
13.51532764980805
 10
6.420669472828896
 20
13.51949406104171
 10
6.411513344118528
 20
13.5237904398292
 10
6.40231415006923
 20
13.52820169498333
 10
6.393104203185602
 20
13.53271233180947
 10
6.383915853741974
 20
13.53730650653129
 10
6.374781376150878
 20
13.5419680819425
 10
6.365732855597999
 20
13.54668068408947
 10
6.356802075341793
 20
13.55142775978527
 10
6.34802040507362
 20
13.55619263475339
 10
6.339418690730587
 20
13.56095857219672
 10
6.331027146148032
 20
13.56570883158619
 10
6.322875246932358
 20
13.57042672746242
 10
6.314991626926865
 20
13.57509568804409
 10
6.307403977634352
 20
13.57969931343687
 10
6.300138950949696
 20
13.58422143323867
 10
6.29322206554408
 20
13.58864616333876
 10
6.28667761722977
 20
13.59295796171128
 10
6.28052859362015
 20
13.5971416830072
 10
6.274796593384913
 20
13.60118263175287
 10
6.269501750383941
 20
13.60506661396845
 10
6.264662662946383
 20
13.60877998702475
 10
6.260296328543349
 20
13.61230970756349
 10
6.256418084083682
 20
13.61564337731252
 10
6.253041552042486
 20
13.61876928663528
 10
6.250178592611705
 20
13.62167645566127
 10
6.247839262040756
 20
13.62435467285325
 10
6.246031777313586
 20
13.62679453087566
 10
6.244762487286221
 20
13.6289874596382
 10
6.244035850386177
 20
13.63092575639863
 10
6.243854418952064
 20
13.63260261281887
 10
6.244218830268414
 20
13.6340121388796
 10
6.245127804327186
 20
13.63514938356911
 10
6.246578148323848
 20
13.63601035227397
 10
6.248564767872215
 20
13.63659202081019
 10
6.251080684898671
 20
13.63689234604582
 10
6.254117062152898
 20
13.63691027307753
 10
6.257663234249051
 20
13.63664573893596
 10
6.261706745128307
 20
13.63609967280693
 10
6.266233391811237
 20
13.63527399276763
 10
6.271227274286266
 20
13.63417159904932
 10
6.276670851359071
 20
13.63279636385013
 10
6.282545002266648
 20
13.63115311773386
 10
6.288829093839696
 20
13.62924763266244
 10
6.295501052977375
 20
13.62708660172165
 10
6.302537444179881
 20
13.6246776156115
 10
6.309913551866486
 20
13.62202913598356
 10
6.317603467189924
 20
13.61915046571913
 10
6.325580179042161
 20
13.61605171625248
 10
6.333815668931894
 20
13.61274377205414
 10
6.342281009400522
 20
13.60923825239875
 10
6.350946465630915
 20
13.60554747055195
 10
6.359781599892018
 20
13.60168439051958
 10
6.368755378452508
 20
13.59766258151116
 10
6.377836280587906
 20
13.59349617027749
 10
6.386992409298272
 20
13.58919979149
 10
6.396191603347572
 20
13.58478853633588
 10
6.4054015502312
 20
13.58027789950973
 10
6.414589899674828
 20
13.57568372478791
 10
6.423724377265921
 20
13.5710221493767
 10
6.4327728978188
 20
13.56630954722974
 10
6.441703678075009
 20
13.56156247153394
 10
6.45048534834318
 20
13.55679759656582
 10
6.459087062686215
 20
13.55203165912248
 10
6.467478607268768
 20
13.54728139973302
 10
6.475630506484444
 20
13.54256350385679
 10
6.483514126489936
 20
13.53789454327511
 10
6.491101775782448
 20
13.53329091788234
 10
6.498366802467106
 20
13.52876879808053
 10
6.50528368787272
 20
13.52434406798045
 10
6.511828136187032
 20
13.52003226960793
 10
6.51797715979665
 20
13.51584854831201
 10
6.523709160031888
 20
13.51180759956633
 10
6.529004003032859
 20
13.50792361735075
 10
6.533843090470419
 20
13.50421024429445
 10
6.538209424873452
 20
13.50068052375572
 10
6.542087669333119
 20
13.49734685400669
 10
6.545464201374315
 20
13.49422094468392
 10
6.548327160805095
 20
13.49131377565794
 10
6.550666491376045
 20
13.48863555846596
 10
6.552473976103215
 20
13.48619570044355
 10
6.553743266130577
 20
13.484002771681
 10
6.554469903030623
 20
13.48206447492058
 10
6.554651334464734
 20
13.48038761850034
 10
6.554286923148387
 20
13.47897809243961
  0
LINE
  5
E9
330
1F
100
AcDbEntity
  8
0
  6
CONTINUOUS
100
AcDbLine
 10
11.52482018180612
 20
12.00763686676607
 30
0.0
 11
11.52482018180612
 21
11.94096305918836
 31
0.0
  0
LINE
  5
EA
330
1F
100
AcDbEntity
  8
0
  6
CONTINUOUS
100
AcDbLine
 10
12.56583485085289
 20
12.39059161837466
 30
0.0
 11
13.8589353247754
 21
11.96062039059367
 31
0.0
  0
LWPOLYLINE
  5
EB
330
1F
100
AcDbEntity
  8
0
  6
CONTINUOUS
100
AcDbPolyline
 90
        4
 70
   128
 43
0.0
 10
12.56583485085289
 20
12.39059161837466
 10
11.09464451671775
 20
12.39441193275065
 10
10.35903828424344
 20
12.39624354316474
 10
9.623419841058266
 20
12.39798258125589
  0
LINE
  5
EC
330
1F
100
AcDbEntity
  8
0
  6
CONTINUOUS
100
AcDbLine
 10
9.858153515139454
 20
12.00763686676607
 30
0.0
 11
9.858153515139454
 21
11.94096305918836
 31
0.0
  0
LINE
  5
ED
330
1F
100
AcDbEntity
  8
0
  6
CONTINUOUS
100
AcDbLine
 10
9.858153515139454
 20
12.00763686676607
 30
0.0
 11
11.52482018180612
 21
12.00763686676607
 31
0.0
  0
ARC
  5
EE
330
1F
100
AcDbEntity
  8
0
  6
CONTINUOUS
100
AcDbCircle
 10
12.77687876577309
 20
15.66898074366282
 30
0.0
 40
7.891863351269769
100
AcDbArc
 50
174.5704131921581
 51
186.7248939379738
  0
ARC
  5
EF
330
1F
100
AcDbEntity
  8
0
  6
CONTINUOUS
100
AcDbCircle
 10
4.467454912431081
 20
14.40762911693282
 30
0.0
 40
8.345789525892683
100
AcDbArc
 50
346.0140831974683
 51
13.98591680253082
  0
LWPOLYLINE
  5
F0
330
1F
100
AcDbEntity
  8
0
  6
CONTINUOUS
100
AcDbPolyline
 90
       40
 70
   128
 43
0.0
 10
6.536082288930709
 20
13.47700805221795
 10
6.533229783467046
 20
13.47963108227454
 10
6.529351539007377
 20
13.48296475202358
 10
6.524985204604343
 20
13.48649447256231
 10
6.520146117166785
 20
13.49020784561861
 10
6.514851274165812
 20
13.49409182783419
 10
6.509119273930576
 20
13.49813277657986
 10
6.502970250320956
 20
13.50231649787578
 10
6.496425802006644
 20
13.5066282962483
 10
6.48950891660103
 20
13.51105302634839
 10
6.48224388991637
 20
13.51557514615019
 10
6.474656240623858
 20
13.52017877154297
 10
6.466772620618367
 20
13.52484773212464
 10
6.458620721402692
 20
13.52956562800088
 10
6.450229176820137
 20
13.53431588739034
 10
6.441627462477102
 20
13.53908182483368
 10
6.432845792208933
 20
13.5438466998018
 10
6.423915011952725
 20
13.5485937754976
 10
6.414866491399845
 20
13.55330637764456
 10
6.405732013808748
 20
13.55796795305577
 10
6.396543664365118
 20
13.56256212777759
 10
6.387333717481492
 20
13.56707276460373
 10
6.378134523432196
 20
13.57148401975786
 10
6.368978394721828
 20
13.57578039854535
 10
6.359897492586432
 20
13.57994680977901
 10
6.35092371402594
 20
13.58396861878744
 10
6.342088579764839
 20
13.58783169881981
 10
6.333423123534448
 20
13.5915224806666
 10
6.324957783065817
 20
13.595028000322
 10
6.316722293176084
 20
13.59833594452034
 10
6.308745581323847
 20
13.60143469398698
 10
6.30105566600041
 20
13.60431336425142
 10
6.293679558313806
 20
13.60696184387936
 10
6.2866431671113
 20
13.6093708299895
 10
6.27997120797362
 20
13.61153186093029
 10
6.273687116400573
 20
13.61343734600172
 10
6.267812965492995
 20
13.61508059211798
 10
6.262369388420189
 20
13.61645582731717
 10
6.257375505945161
 20
13.61755822103549
 10
6.253565578622158
 20
13.61826640737238
  0
CIRCLE
  5
F1
330
1F
100
AcDbEntity
  8
0
  6
CONTINUOUS
100
AcDbCircle
 10
6.824820181806119
 20
14.40762972585504
 30
0.0
 40
0.4111434996699366
  0
CIRCLE
  5
F2
330
1F
100
AcDbEntity
  8
0
  6
CONTINUOUS
100
AcDbCircle
 10
6.824820181806119
 20
14.40762972585504
 30
0.0
 40
0.3349887506559384
  0
CIRCLE
  5
F3
330
1F
100
AcDbEntity
  8
0
  6
CONTINUOUS
100
AcDbCircle
 10
6.824820181806119
 20
14.40762972585504
 30
0.0
 40
0.1733333333333338
  0
ENDSEC
  0
SECTION
  2
OBJECTS
  0
DICTIONARY
  5
C
330
0
100
AcDbDictionary
  3
ACAD_GROUP
350
D
  3
ACAD_LAYOUT
350
1A
  3
ACAD_MLINESTYLE
350
17
  3
ACAD_PLOTSETTINGS
350
19
  3
ACAD_PLOTSTYLENAME
350
E
  3
ACDBHEADERROUNDTRIPXREC
350
179
  3
ACDBVARIABLEDICTIONARY
350
136
  0
DICTIONARY
  5
FC
330
1F
100
AcDbDictionary
280
     1
  3
ACAD_LAYOUTSELFREF
360
19B
  0
DICTIONARY
  5
FE
330
1B
100
AcDbDictionary
280
     1
  3
ACAD_LAYOUTSELFREF
360
19A
  0
DICTIONARY
  5
D
102
{ACAD_REACTORS
330
C
102
}
330
C
100
AcDbDictionary
  0
DICTIONARY
  5
1A
102
{ACAD_REACTORS
330
C
102
}
330
C
100
AcDbDictionary
  0
DICTIONARY
  5
17
102
{ACAD_REACTORS
330
C
102
}
330
C
100
AcDbDictionary
  3
STANDARD
350
18
  0
DICTIONARY
  5
19
102
{ACAD_REACTORS
330
C
102
}
330
C
100
AcDbDictionary
  0
ACDBDICTIONARYWDFLT
  5
E
102
{ACAD_REACTORS
330
C
102
}
330
C
100
AcDbDictionary
281
     1
  3
Normal
350
F
100
AcDbDictionaryWithDefault
340
F
  0
DICTIONARY
  5
179
102
{ACAD_REACTORS
330
C
102
}
330
C
100
AcDbDictionary
  3
CEPSNTYPE
350
183
  3
DIMSTYLEDATA
350
187
  3
FINGERPRINTGUID
350
184
  3
HYPERLINKBASE
350
17C
  3
INSUNITS
350
182
  3
LAYOUTDICT
350
17E
  3
LWETCUNION
350
181
  3
PLOTSETDICT
350
17F
  3
PLOTSTYLNAMDICT
350
180
  3
PSVPSCALE
350
186
  3
PUCSBASE
350
18A
  3
PUCSORGBACK
350
190
  3
PUCSORGBOTTOM
350
18C
  3
PUCSORGFRONT
350
18F
  3
PUCSORGLEFT
350
18D
  3
PUCSORGRIGHT
350
18E
  3
PUCSORGTOP
350
18B
  3
PUCSORTHOREF
350
188
  3
PUCSORTHOVIEW
350
189
  3
STYLESHEET
350
17D
  3
TSTACKALIGN
350
17A
  3
TSTACKSIZE
350
17B
  3
UCSBASE
350
193
  3
UCSORGBACK
350
199
  3
UCSORGBOTTOM
350
195
  3
UCSORGFRONT
350
198
  3
UCSORGLEFT
350
196
  3
UCSORGRIGHT
350
197
  3
UCSORGTOP
350
194
  3
UCSORTHOREF
350
191
  3
UCSORTHOVIEW
350
192
  3
VERSIONGUID
350
185
  0
DICTIONARY
  5
136
102
{ACAD_REACTORS
330
C
102
}
330
C
100
AcDbDictionary
  3
DIMASSOC
350
137
  0
XRECORD
  5
19B
102
{ACAD_REACTORS
330
FC
102
}
330
FC
100
AcDbXrecord
340
1F
  0
XRECORD
  5
19A
102
{ACAD_REACTORS
330
FE
102
}
330
FE
100
AcDbXrecord
340
1B
  0
MLINESTYLE
  5
18
102
{ACAD_REACTORS
330
17
102
}
330
17
100
AcDbMlineStyle
  2
STANDARD
 70
     0
  3

 62
   256
 51
90.0
 52
90.0
 71
     2
 49
0.5
 62
   256
  6
BYLAYER
 49
-0.5
 62
   256
  6
BYLAYER
  0
ACDBPLACEHOLDER
  5
F
102
{ACAD_REACTORS
330
E
102
}
330
E
100
AcDbPlaceHolder
280
     0
  0
XRECORD
  5
183
102
{ACAD_REACTORS
330
179
102
}
330
179
100
AcDbXrecord
 90
        0
  0
XRECORD
  5
187
102
{ACAD_REACTORS
330
179
102
}
330
179
100
AcDbXrecord
1000
DSTYLE
1002
{
1070
   278
 70
    44
1002
}
  0
XRECORD
  5
184
102
{ACAD_REACTORS
330
179
102
}
330
179
100
AcDbXrecord
  1
{CFB3CE24-516A-4C07-8C92-C6D3EA51848D}
  0
XRECORD
  5
17C
102
{ACAD_REACTORS
330
179
102
}
330
179
100
AcDbXrecord
  1

  0
XRECORD
  5
182
102
{ACAD_REACTORS
330
179
102
}
330
179
100
AcDbXrecord
 90
        4
  0
XRECORD
  5
17E
102
{ACAD_REACTORS
330
179
102
}
330
179
100
AcDbXrecord
340
1A
  0
XRECORD
  5
181
102
{ACAD_REACTORS
330
179
102
}
330
179
100
AcDbXrecord
 90
    10781
  0
XRECORD
  5
17F
102
{ACAD_REACTORS
330
179
102
}
330
179
100
AcDbXrecord
340
19
  0
XRECORD
  5
180
102
{ACAD_REACTORS
330
179
102
}
330
179
100
AcDbXrecord
340
E
  0
XRECORD
  5
186
102
{ACAD_REACTORS
330
179
102
}
330
179
100
AcDbXrecord
 40
0.0
  0
XRECORD
  5
18A
102
{ACAD_REACTORS
330
179
102
}
330
179
100
AcDbXrecord
340
0
  0
XRECORD
  5
190
102
{ACAD_REACTORS
330
179
102
}
330
179
100
AcDbXrecord
 10
0.0
 20
0.0
 30
0.0
  0
XRECORD
  5
18C
102
{ACAD_REACTORS
330
179
102
}
330
179
100
AcDbXrecord
 10
0.0
 20
0.0
 30
0.0
  0
XRECORD
  5
18F
102
{ACAD_REACTORS
330
179
102
}
330
179
100
AcDbXrecord
 10
0.0
 20
0.0
 30
0.0
  0
XRECORD
  5
18D
102
{ACAD_REACTORS
330
179
102
}
330
179
100
AcDbXrecord
 10
0.0
 20
0.0
 30
0.0
  0
XRECORD
  5
18E
102
{ACAD_REACTORS
330
179
102
}
330
179
100
AcDbXrecord
 10
0.0
 20
0.0
 30
0.0
  0
XRECORD
  5
18B
102
{ACAD_REACTORS
330
179
102
}
330
179
100
AcDbXrecord
 10
0.0
 20
0.0
 30
0.0
  0
XRECORD
  5
188
102
{ACAD_REACTORS
330
179
102
}
330
179
100
AcDbXrecord
340
0
  0
XRECORD
  5
189
102
{ACAD_REACTORS
330
179
102
}
330
179
100
AcDbXrecord
 70
     0
  0
XRECORD
  5
17D
102
{ACAD_REACTORS
330
179
102
}
330
179
100
AcDbXrecord
  1

  0
XRECORD
  5
17A
102
{ACAD_REACTORS
330
179
102
}
330
179
100
AcDbXrecord
 90
        1
  0
XRECORD
  5
17B
102
{ACAD_REACTORS
330
179
102
}
330
179
100
AcDbXrecord
 90
       70
  0
XRECORD
  5
193
102
{ACAD_REACTORS
330
179
102
}
330
179
100
AcDbXrecord
340
0
  0
XRECORD
  5
199
102
{ACAD_REACTORS
330
179
102
}
330
179
100
AcDbXrecord
 10
0.0
 20
0.0
 30
0.0
  0
XRECORD
  5
195
102
{ACAD_REACTORS
330
179
102
}
330
179
100
AcDbXrecord
 10
0.0
 20
0.0
 30
0.0
  0
XRECORD
  5
198
102
{ACAD_REACTORS
330
179
102
}
330
179
100
AcDbXrecord
 10
0.0
 20
0.0
 30
0.0
  0
XRECORD
  5
196
102
{ACAD_REACTORS
330
179
102
}
330
179
100
AcDbXrecord
 10
0.0
 20
0.0
 30
0.0
  0
XRECORD
  5
197
102
{ACAD_REACTORS
330
179
102
}
330
179
100
AcDbXrecord
 10
0.0
 20
0.0
 30
0.0
  0
XRECORD
  5
194
102
{ACAD_REACTORS
330
179
102
}
330
179
100
AcDbXrecord
 10
0.0
 20
0.0
 30
0.0
  0
XRECORD
  5
191
102
{ACAD_REACTORS
330
179
102
}
330
179
100
AcDbXrecord
340
0
  0
XRECORD
  5
192
102
{ACAD_REACTORS
330
179
102
}
330
179
100
AcDbXrecord
 70
     0
  0
XRECORD
  5
185
102
{ACAD_REACTORS
330
179
102
}
330
179
100
AcDbXrecord
  1
{EC17889F-4792-4BA9-9F67-07BA30D5C4C6}
  0
DICTIONARYVAR
  5
137
102
{ACAD_REACTORS
330
136
102
}
330
136
100
DictionaryVariables
280
     0
  1
1
  0
ENDSEC
  0
EOF
