  0
SECTION
  2
HEADER
  9
$ACADVER
  1
AC1014
  9
$ACADMAINTVER
 70
     9
  9
$DWGCODEPAGE
  3
ANSI_1250
  9
$INSBASE
 10
0.0
 20
0.0
 30
0.0
  9
$EXTMIN
 10
4.024820181806119
 20
4.554778130500812
 30
0.0
  9
$EXTMAX
 10
14.69148684847278
 20
17.27429639252169
 30
0.0
  9
$LIMMIN
 10
0.0
 20
0.0
  9
$LIMMAX
 10
0.0
 20
0.0
  9
$ORTHOMODE
 70
     0
  9
$REGENMODE
 70
     1
  9
$FILLMODE
 70
     1
  9
$QTEXTMODE
 70
     0
  9
$MIRRTEXT
 70
     1
  9
$DRAGMODE
 70
     2
  9
$LTSCALE
 40
1.0
  9
$OSMODE
 70
  3007
  9
$ATTMODE
 70
     1
  9
$TEXTSIZE
 40
2.5
  9
$TRACEWID
 40
1.0
  9
$TEXTSTYLE
  7
STANDARD
  9
$CLAYER
  8
0
  9
$CELTYPE
  6
BYLAYER
  9
$CECOLOR
 62
   256
  9
$CELTSCALE
 40
1.0
  9
$DELOBJ
 70
     1
  9
$DISPSILH
 70
     0
  9
$DIMSCALE
 40
1.0
  9
$DIMASZ
 40
0.3
  9
$DIMEXO
 40
0.1
  9
$DIMDLI
 40
3.75
  9
$DIMRND
 40
0.0
  9
$DIMDLE
 40
0.0
  9
$DIMEXE
 40
0.1
  9
$DIMTP
 40
0.0
  9
$DIMTM
 40
0.0
  9
$DIMTXT
 40
0.2822222222222222
  9
$DIMCEN
 40
2.5
  9
$DIMTSZ
 40
0.0
  9
$DIMTOL
 70
     0
  9
$DIMLIM
 70
     0
  9
$DIMTIH
 70
     1
  9
$DIMTOH
 70
     1
  9
$DIMSE1
 70
     0
  9
$DIMSE2
 70
     0
  9
$DIMTAD
 70
     1
  9
$DIMZIN
 70
     0
  9
$DIMBLK
  1

  9
$DIMASO
 70
     1
  9
$DIMSHO
 70
     1
  9
$DIMPOST
  1

  9
$DIMAPOST
  1

  9
$DIMALT
 70
     0
  9
$DIMALTD
 70
     3
  9
$DIMALTF
 40
0.3937007874015748
  9
$DIMLFAC
 40
15.0
  9
$DIMTOFL
 70
     1
  9
$DIMTVP
 40
0.0
  9
$DIMTIX
 70
     0
  9
$DIMSOXD
 70
     0
  9
$DIMSAH
 70
     0
  9
$DIMBLK1
  1

  9
$DIMBLK2
  1

  9
$DIMSTYLE
  2
ISO-25
  9
$DIMCLRD
 70
     0
  9
$DIMCLRE
 70
     0
  9
$DIMCLRT
 70
     0
  9
$DIMTFAC
 40
1.0
  9
$DIMGAP
 40
0.1524
  9
$DIMJUST
 70
     0
  9
$DIMSD1
 70
     0
  9
$DIMSD2
 70
     0
  9
$DIMTOLJ
 70
     0
  9
$DIMTZIN
 70
     0
  9
$DIMALTZ
 70
     0
  9
$DIMALTTZ
 70
     0
  9
$DIMFIT
 70
     3
  9
$DIMUPT
 70
     0
  9
$DIMUNIT
 70
     2
  9
$DIMDEC
 70
     2
  9
$DIMTDEC
 70
     2
  9
$DIMALTU
 70
     2
  9
$DIMALTTD
 70
     3
  9
$DIMTXSTY
  7
STANDARD
  9
$DIMAUNIT
 70
     0
  9
$LUNITS
 70
     2
  9
$LUPREC
 70
     1
  9
$SKETCHINC
 40
1.0
  9
$FILLETRAD
 40
10.0
  9
$AUNITS
 70
     0
  9
$AUPREC
 70
     0
  9
$MENU
  1
.
  9
$ELEVATION
 40
0.0
  9
$PELEVATION
 40
0.0
  9
$THICKNESS
 40
0.0
  9
$LIMCHECK
 70
     0
  9
$BLIPMODE
 70
     0
  9
$CHAMFERA
 40
10.0
  9
$CHAMFERB
 40
10.0
  9
$CHAMFERC
 40
20.0
  9
$CHAMFERD
 40
0.0
  9
$SKPOLY
 70
     0
  9
$TDCREATE
 40
2453964.604769120
  9
$TDUPDATE
 40
2453966.374731435
  9
$TDINDWG
 40
0.0157347801
  9
$TDUSRTIMER
 40
0.0157347801
  9
$USRTIMER
 70
     1
  9
$ANGBASE
 50
0.0
  9
$ANGDIR
 70
     0
  9
$PDMODE
 70
     0
  9
$PDSIZE
 40
-1.0
  9
$PLINEWID
 40
0.0
  9
$COORDS
 70
     2
  9
$SPLFRAME
 70
     0
  9
$SPLINETYPE
 70
     6
  9
$SPLINESEGS
 70
     8
  9
$ATTDIA
 70
     0
  9
$ATTREQ
 70
     1
  9
$HANDLING
 70
 22529
  9
$HANDSEED
  5
160
  9
$SURFTAB1
 70
     6
  9
$SURFTAB2
 70
     6
  9
$SURFTYPE
 70
     6
  9
$SURFU
 70
     6
  9
$SURFV
 70
     6
  9
$UCSNAME
  2

  9
$UCSORG
 10
0.0
 20
0.0
 30
0.0
  9
$UCSXDIR
 10
1.0
 20
0.0
 30
0.0
  9
$UCSYDIR
 10
0.0
 20
1.0
 30
0.0
  9
$PUCSNAME
  2

  9
$PUCSORG
 10
0.0
 20
0.0
 30
0.0
  9
$PUCSXDIR
 10
1.0
 20
0.0
 30
0.0
  9
$PUCSYDIR
 10
0.0
 20
1.0
 30
0.0
  9
$USERI1
 70
     0
  9
$USERI2
 70
     0
  9
$USERI3
 70
     0
  9
$USERI4
 70
     0
  9
$USERI5
 70
     0
  9
$USERR1
 40
0.0
  9
$USERR2
 40
0.0
  9
$USERR3
 40
0.0
  9
$USERR4
 40
0.0
  9
$USERR5
 40
0.0
  9
$WORLDVIEW
 70
     1
  9
$SHADEDGE
 70
     3
  9
$SHADEDIF
 70
    70
  9
$TILEMODE
 70
     1
  9
$MAXACTVP
 70
    48
  9
$PINSBASE
 10
0.0
 20
0.0
 30
0.0
  9
$PLIMCHECK
 70
     0
  9
$PEXTMIN
 10
1.000000000000000E+20
 20
1.000000000000000E+20
 30
1.000000000000000E+20
  9
$PEXTMAX
 10
-1.000000000000000E+20
 20
-1.000000000000000E+20
 30
-1.000000000000000E+20
  9
$PLIMMIN
 10
0.0
 20
0.0
  9
$PLIMMAX
 10
420.0
 20
297.0
  9
$UNITMODE
 70
     0
  9
$VISRETAIN
 70
     1
  9
$PLINEGEN
 70
     0
  9
$PSLTSCALE
 70
     1
  9
$TREEDEPTH
 70
  3020
  9
$PICKSTYLE
 70
     1
  9
$CMLSTYLE
  2
STANDARD
  9
$CMLJUST
 70
     0
  9
$CMLSCALE
 40
20.0
  9
$PROXYGRAPHICS
 70
     1
  9
$MEASUREMENT
 70
     1
  0
ENDSEC
  0
SECTION
  2
CLASSES
  0
CLASS
  1
ACDBDICTIONARYWDFLT
  2
AcDbDictionaryWithDefault
  3
AutoCAD 2000
 90
        0
280
     0
281
     0
  0
CLASS
  1
ACDBPLACEHOLDER
  2
AcDbPlaceHolder
  3
AutoCAD 2000
 90
        0
280
     0
281
     0
  0
CLASS
  1
LAYOUT
  2
AcDbLayout
  3
AutoCAD 2000
 90
        0
280
     0
281
     0
  0
CLASS
  1
DICTIONARYVAR
  2
AcDbDictionaryVar
  3
AutoCAD 2000
 90
        0
280
     0
281
     0
  0
CLASS
  1
LONG_TRANSACTION
  2
AcDbLongTransaction
  3
AutoCAD 2000
 90
        0
280
     0
281
     0
  0
CLASS
  1
LWPOLYLINE
  2
AcDbPolyline
  3
AutoCAD 2000
 90
        0
280
     0
281
     1
  0
CLASS
  1
HATCH
  2
AcDbHatch
  3
AutoCAD 2000
 90
        0
280
     0
281
     1
  0
CLASS
  1
XRECORD
  2
AcDbXrecord
  3
AutoCAD 2000
 90
        0
280
     0
281
     0
  0
CLASS
  1
LONG_TRANSACTION
  2
AcDbLongTransaction
  3
AutoCAD 2000
 90
        0
280
     0
281
     0
  0
CLASS
  1
LWPOLYLINE
  2
AcDbPolyline
  3
AutoCAD 2000
 90
        0
280
     0
281
     1
  0
CLASS
  1
HATCH
  2
AcDbHatch
  3
AutoCAD 2000
 90
        0
280
     0
281
     1
  0
CLASS
  1
XRECORD
  2
AcDbXrecord
  3
AutoCAD 2000
 90
        0
280
     0
281
     0
  0
ENDSEC
  0
SECTION
  2
TABLES
  0
TABLE
  2
VPORT
  5
8
330
0
100
AcDbSymbolTable
 70
     2
  0
VPORT
  5
13B
330
8
100
AcDbSymbolTableRecord
100
AcDbViewportTableRecord
  2
*ACTIVE
 70
     0
 10
0.0
 20
0.0
 11
1.0
 21
1.0
 12
9.358518281751919
 22
10.9149628179322
 13
0.0
 23
0.0
 14
10.0
 24
10.0
 15
10.0
 25
10.0
 16
0.0
 26
0.0
 36
1.0
 17
0.0
 27
0.0
 37
0.0
 40
12.84803094688208
 41
1.674961119751166
 42
50.0
 43
0.0
 44
0.0
 50
0.0
 51
0.0
 71
     0
 72
  2000
 73
     1
 74
     3
 75
     0
 76
     0
 77
     0
 78
     0
  0
ENDTAB
  0
TABLE
  2
LTYPE
  5
5
330
0
100
AcDbSymbolTable
 70
     1
  0
LTYPE
  5
14
330
5
100
AcDbSymbolTableRecord
100
AcDbLinetypeTableRecord
  2
BYBLOCK
 70
     0
  3

 72
    65
 73
     0
 40
0.0
  0
LTYPE
  5
15
330
5
100
AcDbSymbolTableRecord
100
AcDbLinetypeTableRecord
  2
BYLAYER
 70
     0
  3

 72
    65
 73
     0
 40
0.0
  0
LTYPE
  5
16
330
5
100
AcDbSymbolTableRecord
100
AcDbLinetypeTableRecord
  2
CONTINUOUS
 70
     0
  3
Solid line
 72
    65
 73
     0
 40
0.0
  0
ENDTAB
  0
TABLE
  2
LAYER
  5
2
330
0
100
AcDbSymbolTable
 70
     2
  0
LAYER
  5
10
330
2
100
AcDbSymbolTableRecord
100
AcDbLayerTableRecord
  2
0
 70
     0
 62
     7
  6
CONTINUOUS
  0
LAYER
  5
30
330
2
100
AcDbSymbolTableRecord
100
AcDbLayerTableRecord
  2
REMARKS
 70
     0
 62
     5
  6
CONTINUOUS
  0
ENDTAB
  0
TABLE
  2
STYLE
  5
3
330
0
100
AcDbSymbolTable
 70
     1
  0
STYLE
  5
11
330
3
100
AcDbSymbolTableRecord
100
AcDbTextStyleTableRecord
  2
STANDARD
 70
     0
 40
0.0
 41
1.0
 50
0.0
 71
     0
 42
2.5
  3
ARIAL.TTF
  4

1001
ACAD
1000
Arial
1071
       34
  0
ENDTAB
  0
TABLE
  2
VIEW
  5
6
330
0
100
AcDbSymbolTable
 70
     0
  0
ENDTAB
  0
TABLE
  2
UCS
  5
7
330
0
100
AcDbSymbolTable
 70
     0
  0
ENDTAB
  0
TABLE
  2
APPID
  5
9
330
0
100
AcDbSymbolTable
 70
     1
  0
APPID
  5
12
330
9
100
AcDbSymbolTableRecord
100
AcDbRegAppTableRecord
  2
ACAD
 70
     0
  0
ENDTAB
  0
TABLE
  2
DIMSTYLE
  5
A
330
0
100
AcDbSymbolTable
 70
     1
  0
DIMSTYLE
105
27
330
A
100
AcDbSymbolTableRecord
100
AcDbDimStyleTableRecord
  2
ISO-25
 70
     0
  3

  4

  5

  6

  7

 40
1.0
 41
2.5
 42
0.625
 43
3.75
 44
1.25
 45
0.0
 46
0.0
 47
0.0
 48
0.0
140
2.5
141
2.5
142
0.0
143
0.03937007874016
144
1.0
145
0.0
146
1.0
147
0.625
 71
     0
 72
     0
 73
     0
 74
     0
 75
     0
 76
     0
 77
     1
 78
     8
170
     0
171
     3
172
     1
173
     0
174
     0
175
     0
176
     0
177
     0
178
     0
270
     2
271
     2
272
     2
273
     2
274
     3
340
11
275
     0
280
     0
281
     0
282
     0
283
     0
284
     8
285
     0
286
     0
287
     3
288
     0
  0
ENDTAB
  0
TABLE
  2
BLOCK_RECORD
  5
1
330
0
100
AcDbSymbolTable
 70
     1
  0
BLOCK_RECORD
  5
1F
102
{ACAD_XDICTIONARY
360
FC
102
}
330
1
100
AcDbSymbolTableRecord
100
AcDbBlockTableRecord
  2
*MODEL_SPACE
  0
BLOCK_RECORD
  5
1B
102
{ACAD_XDICTIONARY
360
FE
102
}
330
1
100
AcDbSymbolTableRecord
100
AcDbBlockTableRecord
  2
*PAPER_SPACE
  0
ENDTAB
  0
ENDSEC
  0
SECTION
  2
BLOCKS
  0
BLOCK
  5
20
330
1F
100
AcDbEntity
  8
0
100
AcDbBlockBegin
  2
*MODEL_SPACE
 70
     0
 10
0.0
 20
0.0
 30
0.0
  3
*MODEL_SPACE
  1

  0
ENDBLK
  5
21
330
1F
100
AcDbEntity
  8
0
100
AcDbBlockEnd
  0
BLOCK
  5
1C
330
1B
100
AcDbEntity
 67
     1
  8
0
100
AcDbBlockBegin
  2
*PAPER_SPACE
 70
     0
 10
0.0
 20
0.0
 30
0.0
  3
*PAPER_SPACE
  1

  0
ENDBLK
  5
1D
330
1B
100
AcDbEntity
 67
     1
  8
0
100
AcDbBlockEnd
  0
ENDSEC
  0
SECTION
  2
ENTITIES
  0
LINE
  5
9F
330
1F
100
AcDbEntity
  8
0
  6
CONTINUOUS
 62
     7
100
AcDbLine
 10
4.556138974490144
 20
7.68297635548403
 30
0.0
 11
5.890146365064692
 21
4.782960289017618
 31
0.0
  0
LINE
  5
A0
330
1F
100
AcDbEntity
  8
0
  6
CONTINUOUS
 62
     7
100
AcDbLine
 10
5.890233411604633
 20
4.782997424621316
 30
0.0
 11
11.47994342877885
 21
4.671203224277832
 31
0.0
  0
LINE
  5
A1
330
1F
100
AcDbEntity
  8
0
  6
CONTINUOUS
 62
     7
100
AcDbLine
 10
12.30303026816671
 20
4.671203224277832
 30
0.0
 11
13.13732922770888
 21
4.687889203468674
 31
0.0
  0
ARC
  5
A2
330
1F
100
AcDbEntity
  8
0
  6
CONTINUOUS
 62
     7
100
AcDbCircle
 10
12.305296481636
 20
4.55789255081343
 30
0.0
 40
0.1133333333333343
100
AcDbArc
 50
91.14576283817291
 51
126.2391284063509
  0
ARC
  5
A3
330
1F
100
AcDbEntity
  8
0
  6
CONTINUOUS
 62
     7
100
AcDbCircle
 10
11.47767721530957
 20
4.55789255081343
 30
0.0
 40
0.1133333333333343
100
AcDbArc
 50
53.76087159364796
 51
88.8542371618271
  0
ARC
  5
A4
330
1F
100
AcDbEntity
  8
0
  6
CONTINUOUS
 62
     7
100
AcDbCircle
 10
11.89148684847278
 20
5.122482302315638
 30
0.0
 40
0.5866666666666674
100
AcDbArc
 50
287.1847959010882
 51
306.2391284063529
  0
ARC
  5
A5
330
1F
100
AcDbEntity
  8
0
  6
CONTINUOUS
 62
     7
100
AcDbCircle
 10
11.89148684847278
 20
5.122482302315638
 30
0.0
 40
0.5866666666666674
100
AcDbArc
 50
233.7608715936486
 51
252.8152040989132
  0
LWPOLYLINE
  5
A6
330
1F
100
AcDbEntity
  8
0
  6
CONTINUOUS
 62
     7
100
AcDbPolyline
 90
       56
 70
   128
 43
0.0
 10
13.84870017855667
 20
4.709354128546753
 10
13.85881722638937
 20
4.781736535468331
 10
13.87245241026618
 20
4.879273443222334
 10
13.8858019642498
 20
4.974752454491994
 10
13.8988655531976
 20
5.068172708016704
 10
13.91164285781784
 20
5.15953335548995
 10
13.92391304043985
 20
5.247256988701799
 10
13.93590650446836
 20
5.332992333770237
 10
13.94762298899712
 20
5.41673862692278
 10
13.95906224587029
 20
5.49849511856372
 10
13.97044894027407
 20
5.579868219153407
 10
13.98154649262413
 20
5.659167943092733
 10
13.99235467725724
 20
5.736393542301502
 10
14.00287328030331
 20
5.811544285780358
 10
14.01310209919827
 20
5.88461945996176
 10
14.02304094220804
 20
5.955618369031593
 10
14.03268962796387
 20
6.024540335223044
 10
14.04204798500962
 20
6.091384699084341
 10
14.05111585136102
 20
6.156150819721914
 10
14.05989307407739
 20
6.218838075020513
 10
14.06837950884607
 20
6.279445861841745
 10
14.07657501957964
 20
6.337973596202484
 10
14.08447947802656
 20
6.394420713434549
 10
14.09209276339502
 20
6.448786668327
 10
14.0988157236304
 20
6.496793434400305
 10
14.10529383940651
 20
6.543050613782172
 10
14.11152703268979
 20
6.587557830110235
 10
14.11751522978624
 20
6.630314721048058
 10
14.12325836114165
 20
6.671320938334508
 10
14.12875636115034
 20
6.710576147826855
 10
14.13446237715707
 20
6.751315813040475
 10
14.13987779006301
 20
6.789979944988125
 10
14.14500252972971
 20
6.826568170026077
 10
14.14983653057562
 20
6.861080134507348
 10
14.15437973135505
 20
6.893515504810827
 10
14.15774534661623
 20
6.917543439268516
 10
14.16093137601887
 20
6.94028905728066
 10
14.16393779502113
 20
6.961752223091401
 10
14.16677027980114
 20
6.981973495898566
 10
14.16966688417737
 20
7.002652354645152
 10
14.17363662824253
 20
7.03099207014455
 10
14.17791482326693
 20
7.061533423416094
 10
14.18250152421093
 20
7.094276726576015
 10
14.1873967896446
 20
7.129222314257911
 10
14.19260068169301
 20
7.166370543617368
 10
14.19811326597831
 20
7.205721794335821
 10
14.20393461155855
 20
7.247276468623452
 10
14.21006479086317
 20
7.291034991220921
 10
14.21650387962525
 20
7.336997809399728
 10
14.22325195681026
 20
7.38516539296096
 10
14.23030910454153
 20
7.435538234232172
 10
14.23767540802223
 20
7.488116848062205
 10
14.24535095545379
 20
7.542901771813595
 10
14.253335837951
 20
7.599893565352392
 10
14.26092713601784
 20
7.65407521354257
 10
14.26497649389767
 20
7.682976355484032
  0
LINE
  5
A7
330
1F
100
AcDbEntity
  8
0
  6
CONTINUOUS
 62
     7
100
AcDbLine
 10
4.024820181806119
 20
8.016309688817367
 30
0.0
 11
4.024820181806119
 21
7.682976355484032
 31
0.0
  0
LINE
  5
A8
330
1F
100
AcDbEntity
  8
0
  6
CONTINUOUS
 62
     7
100
AcDbLine
 10
4.024820181806119
 20
8.016309688817367
 30
0.0
 11
9.358153515139571
 21
8.016309688817367
 31
0.0
  0
LINE
  5
A9
330
1F
100
AcDbEntity
  8
0
  6
CONTINUOUS
 62
     7
100
AcDbLine
 10
9.358153515139571
 20
8.016309688817367
 30
0.0
 11
9.358153515139571
 21
7.682976355484032
 31
0.0
  0
LINE
  5
AA
330
1F
100
AcDbEntity
  8
0
  6
CONTINUOUS
 62
     7
100
AcDbLine
 10
9.358153515139571
 20
7.682976355484032
 30
0.0
 11
4.024820181806119
 21
7.682976355484032
 31
0.0
  0
LINE
  5
AB
330
1F
100
AcDbEntity
  8
0
  6
CONTINUOUS
 62
     7
100
AcDbLine
 10
14.69148684847278
 20
8.016309688817367
 30
0.0
 11
14.69148684847278
 21
7.682976355484032
 31
0.0
  0
LINE
  5
AC
330
1F
100
AcDbEntity
  8
0
  6
CONTINUOUS
 62
     7
100
AcDbLine
 10
9.358153515139571
 20
8.016309688817367
 30
0.0
 11
14.69148684847278
 21
8.016309688817367
 31
0.0
  0
LINE
  5
AD
330
1F
100
AcDbEntity
  8
0
  6
CONTINUOUS
 62
     7
100
AcDbLine
 10
14.69148684847278
 20
7.682976355484032
 30
0.0
 11
9.358153515139571
 21
7.682976355484032
 31
0.0
  0
LINE
  5
AE
330
1F
100
AcDbEntity
  8
0
  6
CONTINUOUS
 62
     7
100
AcDbLine
 10
8.878153515139452
 20
7.667629815724454
 30
0.0
 11
7.171486848472785
 21
7.667629815724454
 31
0.0
  0
LINE
  5
AF
330
1F
100
AcDbEntity
  8
0
  6
CONTINUOUS
 62
     7
100
AcDbLine
 10
7.171486848472785
 20
7.682976355484032
 30
0.0
 11
7.171486848472785
 21
7.667629815724454
 31
0.0
  0
LINE
  5
B0
330
1F
100
AcDbEntity
  8
0
  6
CONTINUOUS
 62
     7
100
AcDbLine
 10
8.878153515139452
 20
7.682976355484032
 30
0.0
 11
8.878153515139452
 21
7.667629815724454
 31
0.0
  0
LINE
  5
B1
330
1F
100
AcDbEntity
  8
0
  6
CONTINUOUS
 62
     7
100
AcDbLine
 10
8.878153515139452
 20
7.524177835892843
 30
0.0
 11
7.171486848472785
 21
7.524177835892842
 31
0.0
  0
LINE
  5
B2
330
1F
100
AcDbEntity
  8
0
  6
CONTINUOUS
 62
     7
100
AcDbLine
 10
7.171486848472785
 20
7.667629815724454
 30
0.0
 11
7.171486848472785
 21
7.524177835892842
 31
0.0
  0
LINE
  5
B3
330
1F
100
AcDbEntity
  8
0
  6
CONTINUOUS
 62
     7
100
AcDbLine
 10
8.878153515139452
 20
7.667629815724454
 30
0.0
 11
8.878153515139452
 21
7.524177835892843
 31
0.0
  0
LWPOLYLINE
  5
B4
330
1F
100
AcDbEntity
  8
0
  6
CONTINUOUS
 62
     7
100
AcDbPolyline
 90
        5
 70
   128
 43
0.0
 10
14.17769755386759
 20
7.682976355484032
 10
14.12966953129685
 20
7.310615033290694
 10
14.05144688571468
 20
6.704106315932587
 10
13.92232839258158
 20
5.702835169350279
 10
13.79323942259351
 20
4.701561608739651
  0
LWPOLYLINE
  5
B5
330
1F
100
AcDbEntity
  8
0
  6
CONTINUOUS
 62
     7
100
AcDbPolyline
 90
       14
 70
   128
 43
0.0
 10
9.096998003887133
 20
4.732017684563539
 10
10.61883401547465
 20
4.698803207708666
 10
10.87247837509487
 20
4.693218461919582
 10
11.12612484858982
 20
4.687583794183782
 10
11.37980455510644
 20
4.682375743059809
 10
11.63354861379171
 20
4.67807084710621
 10
11.88738814379256
 20
4.675145644881523
 10
12.14135426425596
 20
4.674076674944298
 10
12.34769227536978
 20
4.674979664800915
 10
12.55411541284527
 20
4.677342888154129
 10
12.76059251163077
 20
4.680691556157063
 10
12.96709240667463
 20
4.684550879962841
 10
13.38015529520274
 20
4.69282564379181
 10
13.79323942259351
 20
4.701561608739651
  0
LINE
  5
B6
330
1F
100
AcDbEntity
  8
0
  6
CONTINUOUS
 62
     7
100
AcDbLine
 10
9.194525762205282
 20
7.682976355484032
 30
0.0
 11
9.096998003887133
 21
4.732017684563539
 31
0.0
  0
ARC
  5
B7
330
1F
100
AcDbEntity
  8
0
  6
CONTINUOUS
 62
     7
100
AcDbCircle
 10
12.29449420699939
 20
7.65872912681589
 30
0.0
 40
0.1868286393404743
100
AcDbArc
 50
356.3606688351121
 51
7.467223971101611
  0
LWPOLYLINE
  5
B8
330
1F
100
AcDbEntity
  8
0
  6
CONTINUOUS
 62
     7
100
AcDbPolyline
 90
       59
 70
   128
 43
0.0
 10
12.17660688041464
 20
7.682976355484032
 10
12.17522393060039
 20
7.677234914759339
 10
12.17323731105202
 20
7.667172747430339
 10
12.17178696705536
 20
7.657039266189749
 10
12.17087799299659
 20
7.646870065260009
 10
12.17051358168024
 20
7.63670086433027
 10
12.17069501311435
 20
7.62656738308968
 10
12.1714216500144
 20
7.616505215760681
 10
12.17269094004176
 20
7.606549706072994
 10
12.17449842476893
 20
7.596735823117491
 10
12.17683775533988
 20
7.587098038515977
 10
12.17970071477066
 20
7.577670205338368
 10
12.18307724681185
 20
7.568485439192547
 10
12.18695549127152
 20
7.55957600190458
 10
12.19132182567456
 20
7.550973188197884
 10
12.19616091311212
 20
7.542707215769357
 10
12.20145575611309
 20
7.534807119148627
 10
12.20718775634832
 20
7.527300647713201
 10
12.21333677995795
 20
7.520214168217767
 10
12.21988122827226
 20
7.513572572180006
 10
12.22679811367787
 20
7.507399188448229
 10
12.23406314036253
 20
7.501715701257946
 10
12.24165078965504
 20
7.496542074065196
 10
12.24953440966053
 20
7.491896479424185
 10
12.25768630887621
 20
7.487795235155518
 10
12.26607785345876
 20
7.48425274702927
 10
12.2746795678018
 20
7.481281458164179
 10
12.28346123806997
 20
7.478891805320755
 10
12.29239201832617
 20
7.477092182241761
 10
12.30144053887906
 20
7.475888910168901
 10
12.31057501647015
 20
7.475286215639212
 10
12.31976336591378
 20
7.475286215639212
 10
12.32897331279741
 20
7.475888910168902
 10
12.3381725068467
 20
7.477092182241763
 10
12.34732863555707
 20
7.478891805320755
 10
12.35640953769247
 20
7.481281458164181
 10
12.36538331625296
 20
7.484252747029271
 10
12.37421845051406
 20
7.48779523515552
 10
12.38288390674445
 20
7.491896479424187
 10
12.39134924721308
 20
7.496542074065199
 10
12.39958473710282
 20
7.501715701257947
 10
12.40756144895505
 20
7.507399188448231
 10
12.41525136427849
 20
7.513572572180008
 10
12.42262747196509
 20
7.520214168217768
 10
12.4296638631676
 20
7.527300647713204
 10
12.43633582230528
 20
7.53480711914863
 10
12.44261991387833
 20
7.54270721576936
 10
12.44849406478591
 20
7.550973188197887
 10
12.45393764185871
 20
7.559576001904584
 10
12.45893152433374
 20
7.568485439192549
 10
12.46345817101667
 20
7.577670205338371
 10
12.46750168189592
 20
7.58709803851598
 10
12.47104785399208
 20
7.596735823117494
 10
12.4740842312463
 20
7.606549706072998
 10
12.47660014827276
 20
7.616505215760684
 10
12.47858676782112
 20
7.626567383089684
 10
12.48003711181778
 20
7.636700864330274
 10
12.48094608587656
 20
7.646870065260011
 10
12.48094608587656
 20
7.646870065260011
  0
LWPOLYLINE
  5
B9
330
1F
100
AcDbEntity
  8
0
  6
CONTINUOUS
 62
     7
100
AcDbPolyline
 90
        4
 70
   128
 43
0.0
 10
6.141274374584367
 20
4.784962559360218
 10
7.619118681013363
 20
4.757580234860204
 10
8.358052305790996
 20
4.744453745857367
 10
9.096998003887133
 20
4.732017684563539
  0
LWPOLYLINE
  5
BA
330
1F
100
AcDbEntity
  8
0
  6
CONTINUOUS
 62
     7
100
AcDbPolyline
 90
        4
 70
   128
 43
0.0
 10
6.141274374584367
 20
4.784962559360218
 10
5.785463949257087
 20
5.630663256708868
 10
5.429627966047822
 20
6.476353407345373
 10
4.921878729806357
 20
7.682976355484032
  0
LWPOLYLINE
  5
BB
330
1F
100
AcDbEntity
  8
0
  6
CONTINUOUS
 62
     7
100
AcDbPolyline
 90
       17
 70
   128
 43
0.0
 10
5.8902334668918
 20
4.783000355858088
 10
5.890141532180476
 20
4.782999630708896
 10
5.891452203397618
 20
4.78300996590491
 10
5.894906844291699
 20
4.783037195856048
 10
5.900503338977525
 20
4.783081284412333
 10
5.9082395715699
 20
4.783142195423787
 10
5.918113426183629
 20
4.783219892740428
 10
5.930387176790024
 20
4.78331641223892
 10
5.944883432726775
 20
4.783430304796763
 10
5.961595615371447
 20
4.783561459800704
 10
5.980517146101608
 20
4.783709766637487
 10
6.001641446294819
 20
4.783875114693858
 10
6.025170934116516
 20
4.784057954915859
 10
6.05096726807062
 20
4.784257128847215
 10
6.078962150942832
 20
4.784473627134207
 10
6.109087285518848
 20
4.784708440423115
 10
6.141274374584367
 20
4.784962559360218
  0
LWPOLYLINE
  5
BC
330
1F
100
AcDbEntity
  8
0
  6
CONTINUOUS
 62
     7
100
AcDbPolyline
 90
        9
 70
   128
 43
0.0
 10
13.79323942259351
 20
4.701561608739651
 10
13.80652408596537
 20
4.702296774696752
 10
13.81806843163083
 20
4.703131107156482
 10
13.82775764791718
 20
4.704057060714143
 10
13.83561488334652
 20
4.705068371157849
 10
13.84163266126158
 20
4.706157813688214
 10
13.84581633256147
 20
4.707320168093125
 10
13.84816498930133
 20
4.708550715167598
 10
13.84849197771739
 20
4.709383226914408
  0
LWPOLYLINE
  5
BD
330
1F
100
AcDbEntity
  8
0
  6
CONTINUOUS
 62
     7
100
AcDbPolyline
 90
       36
 70
   128
 43
0.0
 10
12.47122416861401
 20
7.682976355484032
 10
12.47154454299268
 20
7.680007871650026
 10
12.47227117989272
 20
7.669945704321026
 10
12.47245261132684
 20
7.659812223080436
 10
12.47208820001049
 20
7.649643022150696
 10
12.47117922595172
 20
7.639473821220957
 10
12.46972888195505
 20
7.629340339980367
 10
12.46774226240669
 20
7.619278172651366
 10
12.46522634538023
 20
7.609322662963681
 10
12.462189968126
 20
7.599508780008178
 10
12.45864379602985
 20
7.589870995406664
 10
12.45460028515059
 20
7.580443162229054
 10
12.45007363846766
 20
7.571258396083233
 10
12.44507975599264
 20
7.562348958795267
 10
12.43963617891983
 20
7.55374614508857
 10
12.43376202801225
 20
7.545480172660044
 10
12.4274779364392
 20
7.537580076039314
 10
12.42080597730153
 20
7.530073604603888
 10
12.41376958609902
 20
7.522987125108453
 10
12.40639347841241
 20
7.516345529070692
 10
12.39870356308898
 20
7.510172145338915
 10
12.39072685123674
 20
7.504488658148631
 10
12.38249136134701
 20
7.499315030955883
 10
12.37402602087838
 20
7.494669436314871
 10
12.36536056464799
 20
7.490568192046205
 10
12.35652543038688
 20
7.487025703919955
 10
12.34755165182639
 20
7.484054415054866
 10
12.33847074969099
 20
7.481664762211441
 10
12.32931462098063
 20
7.479865139132449
 10
12.32011542693133
 20
7.478661867059588
 10
12.3109054800477
 20
7.478059172529899
 10
12.30171713060407
 20
7.478059172529899
 10
12.29258265301298
 20
7.478661867059588
 10
12.2835341324601
 20
7.479865139132449
 10
12.27460335220389
 20
7.481664762211442
 10
12.2697229530332
 20
7.482914830897638
  0
LINE
  5
BE
330
1F
100
AcDbEntity
  8
0
  6
CONTINUOUS
 62
     7
100
AcDbLine
 10
11.89148684847278
 20
4.562006314129406
 30
0.0
 11
11.71815351513945
 21
4.562006314129406
 31
0.0
  0
LINE
  5
BF
330
1F
100
AcDbEntity
  8
0
  6
CONTINUOUS
 62
     7
100
AcDbLine
 10
12.06482018180611
 20
4.562006314129406
 30
0.0
 11
11.89148684847278
 21
4.562006314129406
 31
0.0
  0
LINE
  5
C0
330
1F
100
AcDbEntity
  8
0
  6
CONTINUOUS
 62
     7
100
AcDbLine
 10
11.89148684847278
 20
4.671203224277832
 30
0.0
 11
11.47994342877885
 21
4.671203224277832
 31
0.0
  0
LINE
  5
C1
330
1F
100
AcDbEntity
  8
0
  6
CONTINUOUS
 62
     7
100
AcDbLine
 10
12.30303026816671
 20
4.671203224277832
 30
0.0
 11
11.89148684847278
 21
4.671203224277832
 31
0.0
  0
LINE
  5
C2
330
1F
100
AcDbEntity
  8
0
  6
CONTINUOUS
 62
     7
100
AcDbLine
 10
11.54467496544075
 20
4.649302320104264
 30
0.0
 11
12.23829873150481
 21
4.649302320104264
 31
0.0
  0
LINE
  5
C3
330
1F
100
AcDbEntity
  8
REMARKS
100
AcDbLine
 10
8.024820181806118
 20
11.47429639252169
 30
0.0
 11
8.024820181806118
 21
11.48168390539809
 31
0.0
  0
ARC
  5
C4
330
1F
100
AcDbEntity
  8
REMARKS
 62
     8
100
AcDbCircle
 10
14.24875931687949
 20
14.40762972585504
 30
0.0
 40
8.345699328856307
100
AcDbArc
 50
166.0139332757873
 51
193.9860667242135
  0
ARC
  5
C5
330
1F
100
AcDbEntity
  8
REMARKS
 62
     8
100
AcDbCircle
 10
12.13368305997586
 20
14.40762972585502
 30
0.0
 40
7.676754627710833
100
AcDbArc
 50
161.412308103846
 51
198.5876918961546
  0
ARC
  5
C6
330
1F
100
AcDbEntity
  8
REMARKS
 62
     8
100
AcDbCircle
 10
5.938938038852431
 20
15.66883001128515
 30
0.0
 40
7.892332555722457
100
AcDbArc
 50
353.276609554348
 51
5.427812200349115
  0
ARC
  5
C7
330
1F
100
AcDbEntity
  8
REMARKS
 62
     8
100
AcDbCircle
 10
6.178231184288517
 20
15.65745347722293
 30
0.0
 40
8.104040686086237
100
AcDbArc
 50
351.4257755516456
 51
8.554026076915453
  0
LINE
  5
C8
330
1F
100
AcDbEntity
  8
0
  6
CONTINUOUS
 62
     7
100
AcDbLine
 10
4.06394178772835
 20
11.94103395634097
 30
0.0
 11
4.857371705503497
 21
11.96062039059367
 31
0.0
  0
LINE
  5
C9
330
1F
100
AcDbEntity
  8
0
  6
CONTINUOUS
 62
     7
100
AcDbLine
 10
4.06394178772835
 20
11.94103395634097
 30
0.0
 11
4.06394178772835
 21
16.87422549536908
 31
0.0
  0
LINE
  5
CA
330
1F
100
AcDbEntity
  8
0
  6
CONTINUOUS
 62
     7
100
AcDbLine
 10
4.06394178772835
 20
16.87422549536908
 30
0.0
 11
4.857371705503499
 21
16.85463906111637
 31
0.0
  0
ARC
  5
CB
330
1F
100
AcDbEntity
  8
0
  6
CONTINUOUS
 62
     7
100
AcDbCircle
 10
12.12947297806072
 20
14.40762116633831
 30
0.0
 40
7.672767003871062
100
AcDbArc
 50
161.4022263341462
 51
198.5977736658544
  0
LINE
  5
CC
330
1F
100
AcDbEntity
  8
0
  6
CONTINUOUS
 62
     7
100
AcDbLine
 10
14.19212292167035
 20
16.86286405593217
 30
0.0
 11
14.65236524255055
 21
16.87422549536908
 31
0.0
  0
LINE
  5
CD
330
1F
100
AcDbEntity
  8
0
  6
CONTINUOUS
 62
     7
100
AcDbLine
 10
14.65236524255055
 20
14.6668375141535
 30
0.0
 11
14.65236524255055
 21
16.87422549536908
 31
0.0
  0
LINE
  5
CE
330
1F
100
AcDbEntity
  8
0
  6
CONTINUOUS
 62
     7
100
AcDbLine
 10
14.1916974826286
 20
14.44921785156513
 30
0.0
 11
14.65236524255055
 21
14.6668375141535
 31
0.0
  0
ARC
  5
CF
330
1F
100
AcDbEntity
  8
0
  6
CONTINUOUS
 62
     7
100
AcDbCircle
 10
6.177925702027869
 20
15.65748705618795
 30
0.0
 40
8.104347760455034
100
AcDbArc
 50
351.4258627983804
 51
8.553939391926052
  0
LINE
  5
D0
330
1F
100
AcDbEntity
  8
0
  6
CONTINUOUS
 62
     7
100
AcDbLine
 10
9.358153515139571
 20
11.27429639252169
 30
0.0
 11
14.69148684847278
 21
13.94096305918836
 31
0.0
  0
LINE
  5
D1
330
1F
100
AcDbEntity
  8
0
  6
CONTINUOUS
 62
     7
100
AcDbLine
 10
4.024820181806119
 20
11.27429639252169
 30
0.0
 11
9.358153515139571
 21
11.27429639252169
 31
0.0
  0
LINE
  5
D2
330
1F
100
AcDbEntity
  8
0
  6
CONTINUOUS
 62
     7
100
AcDbLine
 10
8.85815351513945
 20
11.94096305918836
 30
0.0
 11
9.200774863473043
 21
11.94096305918836
 31
0.0
  0
LINE
  5
D3
330
1F
100
AcDbEntity
  8
0
  6
CONTINUOUS
 62
     7
100
AcDbLine
 10
9.200774863473043
 20
11.94096305918836
 30
0.0
 11
14.65815351513945
 21
14.66965238502162
 31
0.0
  0
LINE
  5
D4
330
1F
100
AcDbEntity
  8
0
  6
CONTINUOUS
 62
     7
100
AcDbLine
 10
14.65815351513945
 20
14.66965238502162
 30
0.0
 11
14.65815351513945
 21
16.87429639252169
 31
0.0
  0
LINE
  5
D5
330
1F
100
AcDbEntity
  8
0
  6
CONTINUOUS
 62
     7
100
AcDbLine
 10
14.65815351513945
 20
16.87429639252169
 30
0.0
 11
4.058153515139452
 21
16.87429639252169
 31
0.0
  0
LINE
  5
D6
330
1F
100
AcDbEntity
  8
0
  6
CONTINUOUS
 62
     7
100
AcDbLine
 10
4.058153515139452
 20
11.94096305918836
 30
0.0
 11
4.058153515139452
 21
16.87429639252169
 31
0.0
  0
LINE
  5
D7
330
1F
100
AcDbEntity
  8
0
  6
CONTINUOUS
 62
     7
100
AcDbLine
 10
4.058153515139452
 20
11.94096305918836
 30
0.0
 11
7.191486848472784
 21
11.94096305918836
 31
0.0
  0
LINE
  5
D8
330
1F
100
AcDbEntity
  8
0
  6
CONTINUOUS
 62
     7
100
AcDbLine
 10
7.191486848472784
 20
11.94096305918836
 30
0.0
 11
7.191486848472784
 21
11.47429639252169
 31
0.0
  0
LINE
  5
D9
330
1F
100
AcDbEntity
  8
0
  6
CONTINUOUS
 62
     7
100
AcDbLine
 10
8.85815351513945
 20
11.47429639252169
 30
0.0
 11
7.191486848472784
 21
11.47429639252169
 31
0.0
  0
LINE
  5
DA
330
1F
100
AcDbEntity
  8
0
  6
CONTINUOUS
 62
     7
100
AcDbLine
 10
8.85815351513945
 20
11.94096305918836
 30
0.0
 11
8.85815351513945
 21
11.47429639252169
 31
0.0
  0
LINE
  5
DB
330
1F
100
AcDbEntity
  8
0
  6
CONTINUOUS
 62
     7
100
AcDbLine
 10
14.69148684847278
 20
13.94096305918836
 30
0.0
 11
14.69148684847278
 21
17.27429639252169
 31
0.0
  0
LINE
  5
DC
330
1F
100
AcDbEntity
  8
0
  6
CONTINUOUS
 62
     7
100
AcDbLine
 10
4.024820181806119
 20
17.27429639252169
 30
0.0
 11
4.024820181806119
 21
11.27429639252169
 31
0.0
  0
LINE
  5
DD
330
1F
100
AcDbEntity
  8
0
  6
CONTINUOUS
 62
     7
100
AcDbLine
 10
14.69148684847278
 20
17.27429639252169
 30
0.0
 11
4.024820181806119
 21
17.27429639252169
 31
0.0
  0
LWPOLYLINE
  5
DE
330
1F
100
AcDbEntity
  8
0
  6
CONTINUOUS
 62
     7
100
AcDbPolyline
 90
       14
 70
   128
 43
0.0
 10
13.7958826837643
 20
16.41537807866412
 10
13.36966328706121
 20
16.41460800124784
 10
12.94343206004407
 20
16.4139721194384
 10
12.51719027733505
 20
16.41351310682898
 10
12.09089783117805
 20
16.41327844084192
 10
11.66460022107833
 20
16.41328657206287
 10
11.23830819390564
 20
16.41353653439416
 10
10.72948955760931
 20
16.41411186931365
 10
10.22068547413929
 20
16.4149184998463
 10
9.711894849804188
 20
16.41590428162206
 10
9.203116590912594
 20
16.41701707027084
 10
8.694349603773101
 20
16.4182047214226
 10
7.422399675027453
 20
16.42135033848068
 10
6.150472179426003
 20
16.42466783333541
  0
LINE
  5
DF
330
1F
100
AcDbEntity
  8
0
  6
CONTINUOUS
 62
     7
100
AcDbLine
 10
4.857371705503499
 20
16.85463906111637
 30
0.0
 11
6.150472179426003
 21
16.42466783333541
 31
0.0
  0
ELLIPSE
  5
E0
330
1F
100
AcDbEntity
  8
0
  6
CONTINUOUS
 62
     7
100
AcDbEllipse
 10
4.058153515139452
 20
16.86962972585502
 30
0.0
 11
0.0333333333333332
 21
0.0
 31
0.0
210
0.0
220
0.0
230
1.0
 40
0.1399999999999584
 41
1.396263401595539
 42
1.570796326794896
  0
ELLIPSE
  5
E1
330
1F
100
AcDbEntity
  8
0
  6
CONTINUOUS
 62
     7
100
AcDbEllipse
 10
14.65815351513945
 20
16.86962972585502
 30
0.0
 11
0.0333333333333315
 21
0.0
 31
0.0
210
0.0
220
0.0
230
1.0
 40
0.1400000000000725
 41
1.570796326794896
 42
1.745329251994577
  0
LINE
  5
E2
330
1F
100
AcDbEntity
  8
0
  6
CONTINUOUS
 62
     7
100
AcDbLine
 10
14.19212292167035
 20
16.86286405593217
 30
0.0
 11
13.7958826837643
 21
16.41537807866412
 31
0.0
  0
ELLIPSE
  5
E3
330
1F
100
AcDbEntity
  8
0
  6
CONTINUOUS
 62
     7
100
AcDbEllipse
 10
4.058153515139452
 20
11.94562972585502
 30
0.0
 11
0.0333333333333332
 21
0.0
 31
0.0
210
0.0
220
0.0
230
1.0
 40
0.1400000000000117
 41
4.712388980384691
 42
4.886921905584181
  0
ELLIPSE
  5
E4
330
1F
100
AcDbEntity
  8
0
  6
CONTINUOUS
 62
     7
100
AcDbEllipse
 10
14.65815351513945
 20
14.67486987696912
 30
0.0
 11
0.0332661143262332
 21
0.0169642373923758
 31
0.0
210
0.0
220
0.0
230
0.9999999999999998
 40
0.1247231351289573
 41
4.474338367303925
 42
4.648871292503375
  0
LWPOLYLINE
  5
E5
330
1F
100
AcDbEntity
  8
0
  6
CONTINUOUS
 62
     7
100
AcDbPolyline
 90
       14
 70
   128
 43
0.0
 10
9.092887189220638
 20
12.39798258125589
 10
10.61286189926197
 20
13.1631701741837
 10
10.8661943632806
 20
13.29071387329699
 10
11.11952758841921
 20
13.41826860654047
 10
11.37289343390145
 20
13.54577417838271
 10
11.62632375895097
 20
13.67317039329229
 10
11.87985042279142
 20
13.80039705573777
 10
12.13350528464643
 20
13.92739397018773
 10
12.33879422161207
 20
14.02989513756149
 10
12.54416908401108
 20
14.13220822585963
 10
12.74959795392794
 20
14.23439378575491
 10
12.95504891344708
 20
14.33651236792004
 10
13.36601158290843
 20
14.54069855987988
 10
13.77699452702941
 20
14.74482586721256
  0
LINE
  5
E6
330
1F
100
AcDbEntity
  8
0
  6
CONTINUOUS
 62
     7
100
AcDbLine
 10
14.1916974826286
 20
14.44921785156513
 30
0.0
 11
13.77699452702941
 21
14.74482586721256
 31
0.0
  0
LINE
  5
E7
330
1F
100
AcDbEntity
  8
0
  6
CONTINUOUS
 62
     7
100
AcDbLine
 10
9.200774863473043
 20
11.94096305918836
 30
0.0
 11
9.092887189220638
 21
12.39798258125589
 31
0.0
  0
LWPOLYLINE
  5
E8
330
1F
100
AcDbEntity
  8
0
  6
CONTINUOUS
 62
     7
100
AcDbPolyline
 90
      107
 70
   128
 43
0.0
 10
12.16202010713051
 20
13.47897809243961
 10
12.16292908118929
 20
13.47784084775009
 10
12.16437942518595
 20
13.47697987904524
 10
12.16636604473432
 20
13.47639821050901
 10
12.16888196176077
 20
13.47609788527338
 10
12.171918339015
 20
13.47607995824167
 10
12.17546451111115
 20
13.47634449238324
 10
12.17950802199041
 20
13.47689055851228
 10
12.18403466867334
 20
13.47771623855158
 10
12.18902855114836
 20
13.47881863226989
 10
12.19447212822117
 20
13.48019386746908
 10
12.20034627912875
 20
13.48183711358534
 10
12.2066303707018
 20
13.48374259865677
 10
12.21330232983948
 20
13.48590362959756
 10
12.22033872104198
 20
13.4883126157077
 10
12.22771482872858
 20
13.49096109533564
 10
12.23540474405202
 20
13.49383976560008
 10
12.24338145590426
 20
13.49693851506673
 10
12.25161694579399
 20
13.50024645926507
 10
12.26008228626262
 20
13.50375197892046
 10
12.26874774249301
 20
13.50744276076726
 10
12.27758287675412
 20
13.51130584079963
 10
12.28655665531461
 20
13.51532764980805
 10
12.29563755745
 20
13.51949406104171
 10
12.30479368616037
 20
13.5237904398292
 10
12.31399288020967
 20
13.52820169498333
 10
12.3232028270933
 20
13.53271233180947
 10
12.33239117653693
 20
13.53730650653129
 10
12.34152565412802
 20
13.5419680819425
 10
12.3505741746809
 20
13.54668068408947
 10
12.35950495493711
 20
13.55142775978527
 10
12.36828662520528
 20
13.55619263475339
 10
12.37688833954831
 20
13.56095857219672
 10
12.38527988413087
 20
13.56570883158619
 10
12.39343178334654
 20
13.57042672746242
 10
12.40131540335204
 20
13.57509568804409
 10
12.40890305264455
 20
13.57969931343687
 10
12.41616807932921
 20
13.58422143323867
 10
12.42308496473482
 20
13.58864616333876
 10
12.42962941304913
 20
13.59295796171128
 10
12.43577843665875
 20
13.5971416830072
 10
12.44151043689399
 20
13.60118263175287
 10
12.44680527989496
 20
13.60506661396845
 10
12.45164436733252
 20
13.60877998702475
 10
12.45601070173555
 20
13.61230970756349
 10
12.45988894619522
 20
13.61564337731252
 10
12.46326547823642
 20
13.61876928663528
 10
12.4661284376672
 20
13.62167645566127
 10
12.46846776823814
 20
13.62435467285325
 10
12.47027525296531
 20
13.62679453087566
 10
12.47154454299268
 20
13.6289874596382
 10
12.47227117989272
 20
13.63092575639863
 10
12.47245261132684
 20
13.63260261281887
 10
12.47208820001049
 20
13.6340121388796
 10
12.47117922595172
 20
13.63514938356911
 10
12.46972888195505
 20
13.63601035227397
 10
12.46774226240669
 20
13.63659202081019
 10
12.46522634538023
 20
13.63689234604582
 10
12.462189968126
 20
13.63691027307753
 10
12.45864379602985
 20
13.63664573893596
 10
12.45460028515059
 20
13.63609967280693
 10
12.45007363846766
 20
13.63527399276763
 10
12.44507975599264
 20
13.63417159904932
 10
12.43963617891983
 20
13.63279636385013
 10
12.43376202801225
 20
13.63115311773386
 10
12.4274779364392
 20
13.62924763266244
 10
12.42080597730153
 20
13.62708660172165
 10
12.41376958609902
 20
13.6246776156115
 10
12.40639347841241
 20
13.62202913598356
 10
12.39870356308898
 20
13.61915046571913
 10
12.39072685123674
 20
13.61605171625248
 10
12.38249136134701
 20
13.61274377205414
 10
12.37402602087838
 20
13.60923825239875
 10
12.36536056464799
 20
13.60554747055195
 10
12.35652543038688
 20
13.60168439051958
 10
12.34755165182639
 20
13.59766258151116
 10
12.33847074969099
 20
13.59349617027749
 10
12.32931462098063
 20
13.58919979149
 10
12.32011542693133
 20
13.58478853633588
 10
12.3109054800477
 20
13.58027789950973
 10
12.30171713060407
 20
13.57568372478791
 10
12.29258265301298
 20
13.5710221493767
 10
12.2835341324601
 20
13.56630954722974
 10
12.27460335220389
 20
13.56156247153394
 10
12.26582168193572
 20
13.55679759656582
 10
12.25721996759268
 20
13.55203165912248
 10
12.24882842301013
 20
13.54728139973302
 10
12.24067652379446
 20
13.54256350385679
 10
12.23279290378896
 20
13.53789454327511
 10
12.22520525449645
 20
13.53329091788234
 10
12.21794022781179
 20
13.52876879808053
 10
12.21102334240618
 20
13.52434406798045
 10
12.20447889409187
 20
13.52003226960793
 10
12.19832987048225
 20
13.51584854831201
 10
12.19259787024701
 20
13.51180759956633
 10
12.18730302724604
 20
13.50792361735075
 10
12.18246393980848
 20
13.50421024429445
 10
12.17809760540545
 20
13.50068052375572
 10
12.17421936094578
 20
13.49734685400669
 10
12.17084282890459
 20
13.49422094468392
 10
12.16797986947381
 20
13.49131377565794
 10
12.16564053890285
 20
13.48863555846596
 10
12.16383305417569
 20
13.48619570044355
 10
12.16256376414832
 20
13.484002771681
 10
12.16183712724828
 20
13.48206447492058
 10
12.16165569581417
 20
13.48038761850034
 10
12.16202010713051
 20
13.47897809243961
  0
LINE
  5
E9
330
1F
100
AcDbEntity
  8
0
  6
CONTINUOUS
 62
     7
100
AcDbLine
 10
7.191486848472784
 20
12.00763686676607
 30
0.0
 11
7.191486848472784
 21
11.94096305918836
 31
0.0
  0
LINE
  5
EA
330
1F
100
AcDbEntity
  8
0
  6
CONTINUOUS
 62
     7
100
AcDbLine
 10
6.150472179426006
 20
12.39059161837466
 30
0.0
 11
4.857371705503497
 21
11.96062039059367
 31
0.0
  0
LWPOLYLINE
  5
EB
330
1F
100
AcDbEntity
  8
0
  6
CONTINUOUS
 62
     7
100
AcDbPolyline
 90
        4
 70
   128
 43
0.0
 10
6.150472179426006
 20
12.39059161837466
 10
7.621662513561155
 20
12.39441193275065
 10
8.357268746035465
 20
12.39624354316474
 10
9.092887189220638
 20
12.39798258125589
  0
LINE
  5
EC
330
1F
100
AcDbEntity
  8
0
  6
CONTINUOUS
 62
     7
100
AcDbLine
 10
8.85815351513945
 20
12.00763686676607
 30
0.0
 11
8.85815351513945
 21
11.94096305918836
 31
0.0
  0
LINE
  5
ED
330
1F
100
AcDbEntity
  8
0
  6
CONTINUOUS
 62
     7
100
AcDbLine
 10
8.85815351513945
 20
12.00763686676607
 30
0.0
 11
7.191486848472784
 21
12.00763686676607
 31
0.0
  0
ARC
  5
EE
330
1F
100
AcDbEntity
  8
0
  6
CONTINUOUS
 62
     7
100
AcDbCircle
 10
5.939428264505814
 20
15.66898074366282
 30
0.0
 40
7.891863351269769
100
AcDbArc
 50
353.2751060620262
 51
5.429586807841849
  0
ARC
  5
EF
330
1F
100
AcDbEntity
  8
0
  6
CONTINUOUS
 62
     7
100
AcDbCircle
 10
14.24885211784782
 20
14.40762911693282
 30
0.0
 40
8.345789525892683
100
AcDbArc
 50
166.0140831974691
 51
193.9859168025316
  0
LWPOLYLINE
  5
F0
330
1F
100
AcDbEntity
  8
0
  6
CONTINUOUS
 62
     7
100
AcDbPolyline
 90
       40
 70
   128
 43
0.0
 10
12.18022474134819
 20
13.47700805221795
 10
12.18307724681185
 20
13.47963108227454
 10
12.18695549127152
 20
13.48296475202358
 10
12.19132182567456
 20
13.48649447256231
 10
12.19616091311212
 20
13.49020784561861
 10
12.20145575611309
 20
13.49409182783419
 10
12.20718775634832
 20
13.49813277657986
 10
12.21333677995795
 20
13.50231649787578
 10
12.21988122827226
 20
13.5066282962483
 10
12.22679811367787
 20
13.51105302634839
 10
12.23406314036253
 20
13.51557514615019
 10
12.24165078965504
 20
13.52017877154297
 10
12.24953440966053
 20
13.52484773212464
 10
12.25768630887621
 20
13.52956562800088
 10
12.26607785345876
 20
13.53431588739034
 10
12.2746795678018
 20
13.53908182483368
 10
12.28346123806997
 20
13.5438466998018
 10
12.29239201832617
 20
13.5485937754976
 10
12.30144053887906
 20
13.55330637764456
 10
12.31057501647015
 20
13.55796795305577
 10
12.31976336591378
 20
13.56256212777759
 10
12.32897331279741
 20
13.56707276460373
 10
12.3381725068467
 20
13.57148401975786
 10
12.34732863555707
 20
13.57578039854535
 10
12.35640953769247
 20
13.57994680977901
 10
12.36538331625296
 20
13.58396861878744
 10
12.37421845051406
 20
13.58783169881981
 10
12.38288390674445
 20
13.5915224806666
 10
12.39134924721308
 20
13.595028000322
 10
12.39958473710282
 20
13.59833594452034
 10
12.40756144895505
 20
13.60143469398698
 10
12.41525136427849
 20
13.60431336425142
 10
12.42262747196509
 20
13.60696184387936
 10
12.4296638631676
 20
13.6093708299895
 10
12.43633582230528
 20
13.61153186093029
 10
12.44261991387833
 20
13.61343734600172
 10
12.44849406478591
 20
13.61508059211798
 10
12.45393764185871
 20
13.61645582731717
 10
12.45893152433374
 20
13.61755822103549
 10
12.46274145165674
 20
13.61826640737238
  0
CIRCLE
  5
F1
330
1F
100
AcDbEntity
  8
0
  6
CONTINUOUS
 62
     7
100
AcDbCircle
 10
11.89148684847278
 20
14.40762972585504
 30
0.0
 40
0.4111434996699366
  0
CIRCLE
  5
F2
330
1F
100
AcDbEntity
  8
0
  6
CONTINUOUS
 62
     7
100
AcDbCircle
 10
11.89148684847278
 20
14.40762972585504
 30
0.0
 40
0.3349887506559384
  0
CIRCLE
  5
F3
330
1F
100
AcDbEntity
  8
0
  6
CONTINUOUS
 62
     7
100
AcDbCircle
 10
11.89148684847278
 20
14.40762972585504
 30
0.0
 40
0.1733333333333338
  0
ENDSEC
  0
SECTION
  2
OBJECTS
  0
DICTIONARY
  5
C
330
0
100
AcDbDictionary
  3
ACAD_GROUP
350
D
  3
ACAD_LAYOUT
350
1A
  3
ACAD_MLINESTYLE
350
17
  3
ACAD_PLOTSETTINGS
350
19
  3
ACAD_PLOTSTYLENAME
350
E
  3
ACDBHEADERROUNDTRIPXREC
350
13C
  3
ACDBVARIABLEDICTIONARY
350
136
  0
DICTIONARY
  5
FC
330
1F
100
AcDbDictionary
280
     1
  3
ACAD_LAYOUTSELFREF
360
15E
  0
DICTIONARY
  5
FE
330
1B
100
AcDbDictionary
280
     1
  3
ACAD_LAYOUTSELFREF
360
15D
  0
DICTIONARY
  5
D
102
{ACAD_REACTORS
330
C
102
}
330
C
100
AcDbDictionary
  0
DICTIONARY
  5
1A
102
{ACAD_REACTORS
330
C
102
}
330
C
100
AcDbDictionary
  0
DICTIONARY
  5
17
102
{ACAD_REACTORS
330
C
102
}
330
C
100
AcDbDictionary
  3
STANDARD
350
18
  0
DICTIONARY
  5
19
102
{ACAD_REACTORS
330
C
102
}
330
C
100
AcDbDictionary
  0
ACDBDICTIONARYWDFLT
  5
E
102
{ACAD_REACTORS
330
C
102
}
330
C
100
AcDbDictionary
281
     1
  3
Normal
350
F
100
AcDbDictionaryWithDefault
340
F
  0
DICTIONARY
  5
13C
102
{ACAD_REACTORS
330
C
102
}
330
C
100
AcDbDictionary
  3
CEPSNTYPE
350
146
  3
DIMSTYLEDATA
350
14A
  3
FINGERPRINTGUID
350
147
  3
HYPERLINKBASE
350
13F
  3
INSUNITS
350
145
  3
LAYOUTDICT
350
141
  3
LWETCUNION
350
144
  3
PLOTSETDICT
350
142
  3
PLOTSTYLNAMDICT
350
143
  3
PSVPSCALE
350
149
  3
PUCSBASE
350
14D
  3
PUCSORGBACK
350
153
  3
PUCSORGBOTTOM
350
14F
  3
PUCSORGFRONT
350
152
  3
PUCSORGLEFT
350
150
  3
PUCSORGRIGHT
350
151
  3
PUCSORGTOP
350
14E
  3
PUCSORTHOREF
350
14B
  3
PUCSORTHOVIEW
350
14C
  3
STYLESHEET
350
140
  3
TSTACKALIGN
350
13D
  3
TSTACKSIZE
350
13E
  3
UCSBASE
350
156
  3
UCSORGBACK
350
15C
  3
UCSORGBOTTOM
350
158
  3
UCSORGFRONT
350
15B
  3
UCSORGLEFT
350
159
  3
UCSORGRIGHT
350
15A
  3
UCSORGTOP
350
157
  3
UCSORTHOREF
350
154
  3
UCSORTHOVIEW
350
155
  3
VERSIONGUID
350
148
  0
DICTIONARY
  5
136
102
{ACAD_REACTORS
330
C
102
}
330
C
100
AcDbDictionary
  3
DIMASSOC
350
137
  0
XRECORD
  5
15E
102
{ACAD_REACTORS
330
FC
102
}
330
FC
100
AcDbXrecord
340
1F
  0
XRECORD
  5
15D
102
{ACAD_REACTORS
330
FE
102
}
330
FE
100
AcDbXrecord
340
1B
  0
MLINESTYLE
  5
18
102
{ACAD_REACTORS
330
17
102
}
330
17
100
AcDbMlineStyle
  2
STANDARD
 70
     0
  3

 62
   256
 51
90.0
 52
90.0
 71
     2
 49
0.5
 62
   256
  6
BYLAYER
 49
-0.5
 62
   256
  6
BYLAYER
  0
ACDBPLACEHOLDER
  5
F
102
{ACAD_REACTORS
330
E
102
}
330
E
100
AcDbPlaceHolder
280
     0
  0
XRECORD
  5
146
102
{ACAD_REACTORS
330
13C
102
}
330
13C
100
AcDbXrecord
 90
        0
  0
XRECORD
  5
14A
102
{ACAD_REACTORS
330
13C
102
}
330
13C
100
AcDbXrecord
1000
DSTYLE
1002
{
1070
   278
 70
    44
1002
}
  0
XRECORD
  5
147
102
{ACAD_REACTORS
330
13C
102
}
330
13C
100
AcDbXrecord
  1
{CFB3CE24-516A-4C07-8C92-C6D3EA51848D}
  0
XRECORD
  5
13F
102
{ACAD_REACTORS
330
13C
102
}
330
13C
100
AcDbXrecord
  1

  0
XRECORD
  5
145
102
{ACAD_REACTORS
330
13C
102
}
330
13C
100
AcDbXrecord
 90
        4
  0
XRECORD
  5
141
102
{ACAD_REACTORS
330
13C
102
}
330
13C
100
AcDbXrecord
340
1A
  0
XRECORD
  5
144
102
{ACAD_REACTORS
330
13C
102
}
330
13C
100
AcDbXrecord
 90
    10781
  0
XRECORD
  5
142
102
{ACAD_REACTORS
330
13C
102
}
330
13C
100
AcDbXrecord
340
19
  0
XRECORD
  5
143
102
{ACAD_REACTORS
330
13C
102
}
330
13C
100
AcDbXrecord
340
E
  0
XRECORD
  5
149
102
{ACAD_REACTORS
330
13C
102
}
330
13C
100
AcDbXrecord
 40
0.0
  0
XRECORD
  5
14D
102
{ACAD_REACTORS
330
13C
102
}
330
13C
100
AcDbXrecord
340
0
  0
XRECORD
  5
153
102
{ACAD_REACTORS
330
13C
102
}
330
13C
100
AcDbXrecord
 10
0.0
 20
0.0
 30
0.0
  0
XRECORD
  5
14F
102
{ACAD_REACTORS
330
13C
102
}
330
13C
100
AcDbXrecord
 10
0.0
 20
0.0
 30
0.0
  0
XRECORD
  5
152
102
{ACAD_REACTORS
330
13C
102
}
330
13C
100
AcDbXrecord
 10
0.0
 20
0.0
 30
0.0
  0
XRECORD
  5
150
102
{ACAD_REACTORS
330
13C
102
}
330
13C
100
AcDbXrecord
 10
0.0
 20
0.0
 30
0.0
  0
XRECORD
  5
151
102
{ACAD_REACTORS
330
13C
102
}
330
13C
100
AcDbXrecord
 10
0.0
 20
0.0
 30
0.0
  0
XRECORD
  5
14E
102
{ACAD_REACTORS
330
13C
102
}
330
13C
100
AcDbXrecord
 10
0.0
 20
0.0
 30
0.0
  0
XRECORD
  5
14B
102
{ACAD_REACTORS
330
13C
102
}
330
13C
100
AcDbXrecord
340
0
  0
XRECORD
  5
14C
102
{ACAD_REACTORS
330
13C
102
}
330
13C
100
AcDbXrecord
 70
     0
  0
XRECORD
  5
140
102
{ACAD_REACTORS
330
13C
102
}
330
13C
100
AcDbXrecord
  1

  0
XRECORD
  5
13D
102
{ACAD_REACTORS
330
13C
102
}
330
13C
100
AcDbXrecord
 90
        1
  0
XRECORD
  5
13E
102
{ACAD_REACTORS
330
13C
102
}
330
13C
100
AcDbXrecord
 90
       70
  0
XRECORD
  5
156
102
{ACAD_REACTORS
330
13C
102
}
330
13C
100
AcDbXrecord
340
0
  0
XRECORD
  5
15C
102
{ACAD_REACTORS
330
13C
102
}
330
13C
100
AcDbXrecord
 10
0.0
 20
0.0
 30
0.0
  0
XRECORD
  5
158
102
{ACAD_REACTORS
330
13C
102
}
330
13C
100
AcDbXrecord
 10
0.0
 20
0.0
 30
0.0
  0
XRECORD
  5
15B
102
{ACAD_REACTORS
330
13C
102
}
330
13C
100
AcDbXrecord
 10
0.0
 20
0.0
 30
0.0
  0
XRECORD
  5
159
102
{ACAD_REACTORS
330
13C
102
}
330
13C
100
AcDbXrecord
 10
0.0
 20
0.0
 30
0.0
  0
XRECORD
  5
15A
102
{ACAD_REACTORS
330
13C
102
}
330
13C
100
AcDbXrecord
 10
0.0
 20
0.0
 30
0.0
  0
XRECORD
  5
157
102
{ACAD_REACTORS
330
13C
102
}
330
13C
100
AcDbXrecord
 10
0.0
 20
0.0
 30
0.0
  0
XRECORD
  5
154
102
{ACAD_REACTORS
330
13C
102
}
330
13C
100
AcDbXrecord
340
0
  0
XRECORD
  5
155
102
{ACAD_REACTORS
330
13C
102
}
330
13C
100
AcDbXrecord
 70
     0
  0
XRECORD
  5
148
102
{ACAD_REACTORS
330
13C
102
}
330
13C
100
AcDbXrecord
  1
{6ABF5A20-20C8-4188-84B8-EBD2D4F7033E}
  0
DICTIONARYVAR
  5
137
102
{ACAD_REACTORS
330
136
102
}
330
136
100
DictionaryVariables
280
     0
  1
1
  0
ENDSEC
  0
EOF
