  0
SECTION
  2
HEADER
  9
$ACADVER
  1
AC1014
  9
$ACADMAINTVER
 70
     9
  9
$DWGCODEPAGE
  3
ANSI_1250
  9
$INSBASE
 10
0.0
 20
0.0
 30
0.0
  9
$EXTMIN
 10
4.896685383550014
 20
3.977203379920561
 30
0.0
  9
$EXTMAX
 10
16.23001906810812
 20
16.51878334030857
 30
0.0
  9
$LIMMIN
 10
0.0
 20
0.0
  9
$LIMMAX
 10
0.0
 20
0.0
  9
$ORTHOMODE
 70
     0
  9
$REGENMODE
 70
     1
  9
$FILLMODE
 70
     1
  9
$QTEXTMODE
 70
     0
  9
$MIRRTEXT
 70
     1
  9
$DRAGMODE
 70
     2
  9
$LTSCALE
 40
1.0
  9
$OSMODE
 70
  3007
  9
$ATTMODE
 70
     1
  9
$TEXTSIZE
 40
2.5
  9
$TRACEWID
 40
1.0
  9
$TEXTSTYLE
  7
STANDARD
  9
$CLAYER
  8
0
  9
$CELTYPE
  6
BYLAYER
  9
$CECOLOR
 62
   256
  9
$CELTSCALE
 40
1.0
  9
$DELOBJ
 70
     1
  9
$DISPSILH
 70
     0
  9
$DIMSCALE
 40
1.0
  9
$DIMASZ
 40
0.3
  9
$DIMEXO
 40
0.1
  9
$DIMDLI
 40
3.75
  9
$DIMRND
 40
0.0
  9
$DIMDLE
 40
0.0
  9
$DIMEXE
 40
0.1
  9
$DIMTP
 40
0.0
  9
$DIMTM
 40
0.0
  9
$DIMTXT
 40
0.2822222222222222
  9
$DIMCEN
 40
2.5
  9
$DIMTSZ
 40
0.0
  9
$DIMTOL
 70
     0
  9
$DIMLIM
 70
     0
  9
$DIMTIH
 70
     1
  9
$DIMTOH
 70
     1
  9
$DIMSE1
 70
     0
  9
$DIMSE2
 70
     0
  9
$DIMTAD
 70
     1
  9
$DIMZIN
 70
     0
  9
$DIMBLK
  1

  9
$DIMASO
 70
     1
  9
$DIMSHO
 70
     1
  9
$DIMPOST
  1

  9
$DIMAPOST
  1

  9
$DIMALT
 70
     0
  9
$DIMALTD
 70
     3
  9
$DIMALTF
 40
0.3937007874015748
  9
$DIMLFAC
 40
15.0
  9
$DIMTOFL
 70
     1
  9
$DIMTVP
 40
0.0
  9
$DIMTIX
 70
     0
  9
$DIMSOXD
 70
     0
  9
$DIMSAH
 70
     0
  9
$DIMBLK1
  1

  9
$DIMBLK2
  1

  9
$DIMSTYLE
  2
ISO-25
  9
$DIMCLRD
 70
     0
  9
$DIMCLRE
 70
     0
  9
$DIMCLRT
 70
     0
  9
$DIMTFAC
 40
1.0
  9
$DIMGAP
 40
0.1524
  9
$DIMJUST
 70
     0
  9
$DIMSD1
 70
     0
  9
$DIMSD2
 70
     0
  9
$DIMTOLJ
 70
     0
  9
$DIMTZIN
 70
     0
  9
$DIMALTZ
 70
     0
  9
$DIMALTTZ
 70
     0
  9
$DIMFIT
 70
     3
  9
$DIMUPT
 70
     0
  9
$DIMUNIT
 70
     2
  9
$DIMDEC
 70
     2
  9
$DIMTDEC
 70
     2
  9
$DIMALTU
 70
     2
  9
$DIMALTTD
 70
     3
  9
$DIMTXSTY
  7
STANDARD
  9
$DIMAUNIT
 70
     0
  9
$LUNITS
 70
     2
  9
$LUPREC
 70
     0
  9
$SKETCHINC
 40
1.0
  9
$FILLETRAD
 40
10.0
  9
$AUNITS
 70
     0
  9
$AUPREC
 70
     0
  9
$MENU
  1
.
  9
$ELEVATION
 40
0.0
  9
$PELEVATION
 40
0.0
  9
$THICKNESS
 40
0.0
  9
$LIMCHECK
 70
     0
  9
$BLIPMODE
 70
     0
  9
$CHAMFERA
 40
10.0
  9
$CHAMFERB
 40
10.0
  9
$CHAMFERC
 40
20.0
  9
$CHAMFERD
 40
0.0
  9
$SKPOLY
 70
     0
  9
$TDCREATE
 40
2453930.650342882
  9
$TDUPDATE
 40
2453966.374981724
  9
$TDINDWG
 40
0.0161628472
  9
$TDUSRTIMER
 40
0.0161628472
  9
$USRTIMER
 70
     1
  9
$ANGBASE
 50
0.0
  9
$ANGDIR
 70
     0
  9
$PDMODE
 70
     0
  9
$PDSIZE
 40
-1.0
  9
$PLINEWID
 40
0.0
  9
$COORDS
 70
     2
  9
$SPLFRAME
 70
     0
  9
$SPLINETYPE
 70
     6
  9
$SPLINESEGS
 70
     8
  9
$ATTDIA
 70
     0
  9
$ATTREQ
 70
     1
  9
$HANDLING
 70
 22529
  9
$HANDSEED
  5
3AC
  9
$SURFTAB1
 70
     6
  9
$SURFTAB2
 70
     6
  9
$SURFTYPE
 70
     6
  9
$SURFU
 70
     6
  9
$SURFV
 70
     6
  9
$UCSNAME
  2

  9
$UCSORG
 10
0.0
 20
0.0
 30
0.0
  9
$UCSXDIR
 10
1.0
 20
0.0
 30
0.0
  9
$UCSYDIR
 10
0.0
 20
1.0
 30
0.0
  9
$PUCSNAME
  2

  9
$PUCSORG
 10
0.0
 20
0.0
 30
0.0
  9
$PUCSXDIR
 10
1.0
 20
0.0
 30
0.0
  9
$PUCSYDIR
 10
0.0
 20
1.0
 30
0.0
  9
$USERI1
 70
     0
  9
$USERI2
 70
     0
  9
$USERI3
 70
     0
  9
$USERI4
 70
     0
  9
$USERI5
 70
     0
  9
$USERR1
 40
0.0
  9
$USERR2
 40
0.0
  9
$USERR3
 40
0.0
  9
$USERR4
 40
0.0
  9
$USERR5
 40
0.0
  9
$WORLDVIEW
 70
     1
  9
$SHADEDGE
 70
     3
  9
$SHADEDIF
 70
    70
  9
$TILEMODE
 70
     1
  9
$MAXACTVP
 70
    48
  9
$PINSBASE
 10
0.0
 20
0.0
 30
0.0
  9
$PLIMCHECK
 70
     0
  9
$PEXTMIN
 10
1.000000000000000E+20
 20
1.000000000000000E+20
 30
1.000000000000000E+20
  9
$PEXTMAX
 10
-1.000000000000000E+20
 20
-1.000000000000000E+20
 30
-1.000000000000000E+20
  9
$PLIMMIN
 10
0.0
 20
0.0
  9
$PLIMMAX
 10
420.0
 20
297.0
  9
$UNITMODE
 70
     0
  9
$VISRETAIN
 70
     1
  9
$PLINEGEN
 70
     0
  9
$PSLTSCALE
 70
     1
  9
$TREEDEPTH
 70
  3020
  9
$PICKSTYLE
 70
     1
  9
$CMLSTYLE
  2
STANDARD
  9
$CMLJUST
 70
     0
  9
$CMLSCALE
 40
20.0
  9
$PROXYGRAPHICS
 70
     1
  9
$MEASUREMENT
 70
     1
  0
ENDSEC
  0
SECTION
  2
CLASSES
  0
CLASS
  1
ACDBDICTIONARYWDFLT
  2
AcDbDictionaryWithDefault
  3
AutoCAD 2000
 90
        0
280
     0
281
     0
  0
CLASS
  1
ACDBPLACEHOLDER
  2
AcDbPlaceHolder
  3
AutoCAD 2000
 90
        0
280
     0
281
     0
  0
CLASS
  1
LAYOUT
  2
AcDbLayout
  3
AutoCAD 2000
 90
        0
280
     0
281
     0
  0
CLASS
  1
DICTIONARYVAR
  2
AcDbDictionaryVar
  3
AutoCAD 2000
 90
        0
280
     0
281
     0
  0
CLASS
  1
LONG_TRANSACTION
  2
AcDbLongTransaction
  3
AutoCAD 2000
 90
        0
280
     0
281
     0
  0
CLASS
  1
LWPOLYLINE
  2
AcDbPolyline
  3
AutoCAD 2000
 90
        0
280
     0
281
     1
  0
CLASS
  1
HATCH
  2
AcDbHatch
  3
AutoCAD 2000
 90
        0
280
     0
281
     1
  0
CLASS
  1
XRECORD
  2
AcDbXrecord
  3
AutoCAD 2000
 90
        0
280
     0
281
     0
  0
CLASS
  1
LONG_TRANSACTION
  2
AcDbLongTransaction
  3
AutoCAD 2000
 90
        0
280
     0
281
     0
  0
CLASS
  1
LWPOLYLINE
  2
AcDbPolyline
  3
AutoCAD 2000
 90
        0
280
     0
281
     1
  0
CLASS
  1
HATCH
  2
AcDbHatch
  3
AutoCAD 2000
 90
        0
280
     0
281
     1
  0
CLASS
  1
XRECORD
  2
AcDbXrecord
  3
AutoCAD 2000
 90
        0
280
     0
281
     0
  0
CLASS
  1
LONG_TRANSACTION
  2
AcDbLongTransaction
  3
AutoCAD 2000
 90
        0
280
     0
281
     0
  0
CLASS
  1
LWPOLYLINE
  2
AcDbPolyline
  3
AutoCAD 2000
 90
        0
280
     0
281
     1
  0
CLASS
  1
HATCH
  2
AcDbHatch
  3
AutoCAD 2000
 90
        0
280
     0
281
     1
  0
CLASS
  1
XRECORD
  2
AcDbXrecord
  3
AutoCAD 2000
 90
        0
280
     0
281
     0
  0
ENDSEC
  0
SECTION
  2
TABLES
  0
TABLE
  2
VPORT
  5
8
330
0
100
AcDbSymbolTable
 70
     2
  0
VPORT
  5
387
330
8
100
AcDbSymbolTableRecord
100
AcDbViewportTableRecord
  2
*ACTIVE
 70
     0
 10
0.0
 20
0.0
 11
1.0
 21
1.0
 12
10.56276169712255
 22
10.24818759929317
 13
0.0
 23
0.0
 14
10.0
 24
10.0
 15
10.0
 25
10.0
 16
0.0
 26
0.0
 36
1.0
 17
0.0
 27
0.0
 37
0.0
 40
12.66338100965943
 41
1.674961119751166
 42
50.0
 43
0.0
 44
0.0
 50
0.0
 51
0.0
 71
     0
 72
  2000
 73
     1
 74
     3
 75
     0
 76
     0
 77
     0
 78
     0
  0
ENDTAB
  0
TABLE
  2
LTYPE
  5
5
330
0
100
AcDbSymbolTable
 70
     1
  0
LTYPE
  5
14
330
5
100
AcDbSymbolTableRecord
100
AcDbLinetypeTableRecord
  2
BYBLOCK
 70
     0
  3

 72
    65
 73
     0
 40
0.0
  0
LTYPE
  5
15
330
5
100
AcDbSymbolTableRecord
100
AcDbLinetypeTableRecord
  2
BYLAYER
 70
     0
  3

 72
    65
 73
     0
 40
0.0
  0
LTYPE
  5
16
330
5
100
AcDbSymbolTableRecord
100
AcDbLinetypeTableRecord
  2
CONTINUOUS
 70
     0
  3
Solid line
 72
    65
 73
     0
 40
0.0
  0
ENDTAB
  0
TABLE
  2
LAYER
  5
2
330
0
100
AcDbSymbolTable
 70
     2
  0
LAYER
  5
10
330
2
100
AcDbSymbolTableRecord
100
AcDbLayerTableRecord
  2
0
 70
     0
 62
     7
  6
CONTINUOUS
  0
LAYER
  5
2F
330
2
100
AcDbSymbolTableRecord
100
AcDbLayerTableRecord
  2
MEASUREMENT
 70
     0
 62
     1
  6
CONTINUOUS
  0
ENDTAB
  0
TABLE
  2
STYLE
  5
3
330
0
100
AcDbSymbolTable
 70
     2
  0
STYLE
  5
11
330
3
100
AcDbSymbolTableRecord
100
AcDbTextStyleTableRecord
  2
STANDARD
 70
     0
 40
0.0
 41
1.0
 50
0.0
 71
     0
 42
2.5
  3
romans__.ttf
  4

1001
ACAD
1000
RomanS
1071
        2
  0
STYLE
  5
32
330
3
100
AcDbSymbolTableRecord
100
AcDbTextStyleTableRecord
  2
SLDTEXTSTYLE0
 70
     0
 40
0.0
 41
1.0
 50
0.0
 71
     0
 42
0.2
  3
ARIAL.TTF
  4

1001
ACAD
1000
Arial
1071
       34
  0
ENDTAB
  0
TABLE
  2
VIEW
  5
6
330
0
100
AcDbSymbolTable
 70
     0
  0
ENDTAB
  0
TABLE
  2
UCS
  5
7
330
0
100
AcDbSymbolTable
 70
     0
  0
ENDTAB
  0
TABLE
  2
APPID
  5
9
330
0
100
AcDbSymbolTable
 70
     1
  0
APPID
  5
12
330
9
100
AcDbSymbolTableRecord
100
AcDbRegAppTableRecord
  2
ACAD
 70
     0
  0
ENDTAB
  0
TABLE
  2
DIMSTYLE
  5
A
330
0
100
AcDbSymbolTable
 70
     1
  0
DIMSTYLE
105
27
330
A
100
AcDbSymbolTableRecord
100
AcDbDimStyleTableRecord
  2
ISO-25
 70
     0
  3

  4

  5

  6

  7

 40
1.0
 41
2.5
 42
0.625
 43
3.75
 44
1.25
 45
0.0
 46
0.0
 47
0.0
 48
0.0
140
2.5
141
2.5
142
0.0
143
0.03937007874016
144
1.0
145
0.0
146
1.0
147
0.625
 71
     0
 72
     0
 73
     0
 74
     0
 75
     0
 76
     0
 77
     1
 78
     8
170
     0
171
     3
172
     1
173
     0
174
     0
175
     0
176
     0
177
     0
178
     0
270
     2
271
     2
272
     2
273
     2
274
     3
340
32
275
     0
280
     0
281
     0
282
     0
283
     0
284
     8
285
     0
286
     0
287
     3
288
     0
  0
ENDTAB
  0
TABLE
  2
BLOCK_RECORD
  5
1
330
0
100
AcDbSymbolTable
 70
     1
  0
BLOCK_RECORD
  5
1F
102
{ACAD_XDICTIONARY
360
302
102
}
330
1
100
AcDbSymbolTableRecord
100
AcDbBlockTableRecord
  2
*MODEL_SPACE
  0
BLOCK_RECORD
  5
1B
102
{ACAD_XDICTIONARY
360
304
102
}
330
1
100
AcDbSymbolTableRecord
100
AcDbBlockTableRecord
  2
*PAPER_SPACE
  0
ENDTAB
  0
ENDSEC
  0
SECTION
  2
BLOCKS
  0
BLOCK
  5
20
330
1F
100
AcDbEntity
  8
0
100
AcDbBlockBegin
  2
*MODEL_SPACE
 70
     0
 10
0.0
 20
0.0
 30
0.0
  3
*MODEL_SPACE
  1

  0
ENDBLK
  5
21
330
1F
100
AcDbEntity
  8
0
100
AcDbBlockEnd
  0
BLOCK
  5
1C
330
1B
100
AcDbEntity
 67
     1
  8
0
100
AcDbBlockBegin
  2
*PAPER_SPACE
 70
     0
 10
0.0
 20
0.0
 30
0.0
  3
*PAPER_SPACE
  1

  0
ENDBLK
  5
1D
330
1B
100
AcDbEntity
 67
     1
  8
0
100
AcDbBlockEnd
  0
ENDSEC
  0
SECTION
  2
ENTITIES
  0
LINE
  5
A4
330
1F
100
AcDbEntity
  8
MEASUREMENT
 62
    27
100
AcDbLine
 10
5.631724005651269
 20
4.16928508226185
 30
0.0
 11
5.726843219274868
 21
4.000997242773945
 31
0.0
  0
LINE
  5
A5
330
1F
100
AcDbEntity
  8
MEASUREMENT
 62
    27
100
AcDbLine
 10
5.726843219274868
 20
4.000997242773945
 30
0.0
 11
8.178137431882767
 21
4.000997242773945
 31
0.0
  0
LINE
  5
A6
330
1F
100
AcDbEntity
  8
MEASUREMENT
 62
    27
100
AcDbLine
 10
8.178137431882767
 20
4.000997242773945
 30
0.0
 11
8.178137431882767
 21
4.109344479955614
 31
0.0
  0
LINE
  5
A7
330
1F
100
AcDbEntity
  8
MEASUREMENT
 62
    27
100
AcDbLine
 10
8.957242442655219
 20
4.109532567709509
 30
0.0
 11
8.957242442655219
 21
3.977203379920561
 31
0.0
  0
LINE
  5
A8
330
1F
100
AcDbEntity
  8
MEASUREMENT
 62
    27
100
AcDbLine
 10
8.957242442655219
 20
3.977203379920561
 30
0.0
 11
13.9335654173199
 21
3.977203379920561
 31
0.0
  0
LINE
  5
A9
330
1F
100
AcDbEntity
  8
MEASUREMENT
 62
    27
100
AcDbLine
 10
13.9335654173199
 20
3.977203379920561
 30
0.0
 11
14.10685687176232
 21
4.224747295557688
 31
0.0
  0
POINT
  5
AA
330
1F
100
AcDbEntity
  8
MEASUREMENT
 62
    27
100
AcDbPoint
 10
9.00355647061486
 20
4.110536713253893
 30
0.0
  0
LWPOLYLINE
  5
AC
330
1F
100
AcDbEntity
  8
0
  6
CONTINUOUS
 62
     7
100
AcDbPolyline
 90
       18
 70
   128
 43
0.0
 10
5.296722354324363
 20
6.900997226879372
 10
5.307165882817608
 20
6.779809063122048
 10
5.322354735763572
 20
6.603514815812681
 10
5.337738297215802
 20
6.424929365958148
 10
5.35331895136009
 20
6.244005625889077
 10
5.368818543187481
 20
6.063990657970681
 10
5.384516817164126
 20
5.881628061776732
 10
5.400416952204409
 20
5.696870153591409
 10
5.41652451140851
 20
5.509668057605996
 10
5.429562034042382
 20
5.358112718110655
 10
5.442736249994936
 20
5.204934741502379
 10
5.456050338180565
 20
5.050107305691018
 10
5.46950588805646
 20
4.893602396493529
 10
5.48310607853701
 20
4.73539229775009
 10
5.496605338485741
 20
4.578319654311115
 10
5.510247649581931
 20
4.419546391015623
 10
5.524036985468569
 20
4.259044195657347
 10
5.531362793675763
 20
4.173751737123106
  0
LINE
  5
AD
330
1F
100
AcDbEntity
  8
0
  6
CONTINUOUS
 62
     7
100
AcDbLine
 10
6.028133334548963
 20
4.155959253952278
 30
0.0
 11
8.189824523361217
 21
4.109091128354643
 31
0.0
  0
LINE
  5
AE
330
1F
100
AcDbEntity
  8
0
  6
CONTINUOUS
 62
     7
100
AcDbLine
 10
8.936880530746472
 20
4.109091128354643
 30
0.0
 11
9.720912478200288
 21
4.126089876339211
 31
0.0
  0
ARC
  5
AF
330
1F
100
AcDbEntity
  8
0
  6
CONTINUOUS
 62
     7
100
AcDbCircle
 10
8.564740548523575
 20
4.560328875771022
 30
0.0
 40
0.5866666666666671
100
AcDbArc
 50
230.2780966476353
 51
252.6732400414197
  0
ARC
  5
B0
330
1F
100
AcDbEntity
  8
0
  6
CONTINUOUS
 62
     7
100
AcDbCircle
 10
8.561964187692678
 20
4.560328875771022
 30
0.0
 40
0.5866666666666666
100
AcDbArc
 50
287.3267599585816
 51
309.7219033523663
  0
LINE
  5
B1
330
1F
100
AcDbEntity
  8
0
  6
CONTINUOUS
 62
     7
100
AcDbLine
 10
14.20855413062543
 20
4.230270152733102
 30
0.0
 11
15.62860489073565
 21
6.900997226879372
 31
0.0
  0
LINE
  5
B2
330
1F
100
AcDbEntity
  8
0
  6
CONTINUOUS
 62
     7
100
AcDbLine
 10
16.23001903477479
 20
7.134330735052997
 30
0.0
 11
10.71566909733582
 21
7.134330735052997
 31
0.0
  0
LINE
  5
B3
330
1F
100
AcDbEntity
  8
0
  6
CONTINUOUS
 62
     7
100
AcDbLine
 10
10.71566909733582
 20
7.134330735052997
 30
0.0
 11
9.787211121948248
 21
7.134330735052997
 31
0.0
  0
LINE
  5
B4
330
1F
100
AcDbEntity
  8
0
  6
CONTINUOUS
 62
     7
100
AcDbLine
 10
9.787211121948248
 20
7.134330735052997
 30
0.0
 11
6.250797213943486
 21
7.134330735052997
 31
0.0
  0
LINE
  5
B5
330
1F
100
AcDbEntity
  8
0
  6
CONTINUOUS
 62
     7
100
AcDbLine
 10
6.250797213943486
 20
7.134330735052997
 30
0.0
 11
5.442482731572476
 21
7.134330735052997
 31
0.0
  0
LINE
  5
B6
330
1F
100
AcDbEntity
  8
0
  6
CONTINUOUS
 62
     7
100
AcDbLine
 10
5.442482731572476
 20
7.134330735052997
 30
0.0
 11
4.896685383550014
 21
7.134330735052997
 31
0.0
  0
LINE
  5
B7
330
1F
100
AcDbEntity
  8
0
  6
CONTINUOUS
 62
     7
100
AcDbLine
 10
9.787211121948248
 20
6.900997226879372
 30
0.0
 11
6.250797213943486
 21
6.900997226879372
 31
0.0
  0
LWPOLYLINE
  5
B8
330
1F
100
AcDbEntity
  8
0
  6
CONTINUOUS
 62
     7
100
AcDbPolyline
 90
        4
 70
   128
 43
0.0
 10
10.01899292253622
 20
6.900997226879372
 10
9.968881708216361
 20
5.906003778621926
 10
9.924186171920791
 20
5.01798119688568
 10
9.879518848490411
 20
4.129957323715462
  0
LWPOLYLINE
  5
B9
330
1F
100
AcDbEntity
  8
0
  6
CONTINUOUS
 62
     7
100
AcDbPolyline
 90
       95
 70
   128
 43
0.0
 10
5.531561475825014
 20
4.173768823787942
 10
5.531799099675519
 20
4.173365101660663
 10
5.533951224716208
 20
4.172745213354999
 10
5.538133086593649
 20
4.17208181365865
 10
5.544282696477275
 20
4.171404605552926
 10
5.552425485682189
 20
4.170711403534188
 10
5.562537612350483
 20
4.170004492447152
 10
5.573932430974344
 20
4.169322217946623
 10
5.587078831426003
 20
4.168628022517139
 10
5.60201734486391
 20
4.167919919337208
 10
5.618697108657855
 20
4.167200193251545
 10
5.637047391962705
 20
4.166471228445941
 10
5.657101573379534
 20
4.165731236781055
 10
5.678915283910132
 20
4.164977834071094
 10
5.702411434880591
 20
4.164213603183998
 10
5.728825034530655
 20
4.163401092534636
 10
5.757045052281712
 20
4.162577157661691
 10
5.787153345179255
 20
4.161739116356149
 10
5.819030703933731
 20
4.160889948850249
 10
5.850853226415012
 20
4.160075153356169
 10
5.884216727645888
 20
4.159250821118925
 10
5.919205448857639
 20
4.158414667293802
 10
5.955693028203342
 20
4.157569473430887
 10
5.99353244089255
 20
4.15671802108027
 10
6.032804749242159
 20
4.15585812473831
 10
6.073606910141003
 20
4.154987201537068
 10
6.115788719884249
 20
4.154108331049854
 10
6.1614450830536
 20
4.153178796614582
 10
6.208543878626516
 20
4.15224111621119
 10
6.257212263178518
 20
4.151292408948515
 10
6.307250759831757
 20
4.150336151764168
 10
6.35590245508322
 20
4.149423306629434
 10
6.405710480443328
 20
4.148504401689146
 10
6.456794045201628
 20
4.147577052757516
 10
6.508964003952036
 20
4.146644240066781
 10
6.562015316716521
 20
4.145709440554553
 10
6.61606639805604
 20
4.144770170693968
 10
6.671245199274706
 20
4.143823946958159
 10
6.727345885665901
 20
4.142874146943663
 10
6.78708642903138
 20
4.141875371779376
 10
6.847740910283414
 20
4.140873914406075
 10
6.909469864598599
 20
4.139866893932595
 10
6.972015799911507
 20
4.13885848268407
 10
7.032005093327847
 20
4.137902026817574
 10
7.092634143264777
 20
4.136945769633228
 10
7.154046795598355
 20
4.135987525627389
 10
7.216010989578252
 20
4.135031069760893
 10
7.278287511896776
 20
4.134080276335651
 10
7.34101702951559
 20
4.133133059189096
 10
7.404346567225145
 20
4.132187729522958
 10
7.468034527531948
 20
4.131248459662372
 10
7.535117568405159
 20
4.130271837557727
 10
7.602485122116095
 20
4.129305050219471
 10
7.67030964477031
 20
4.128346607531482
 10
7.738306623530076
 20
4.127402072593942
 10
7.802878322036749
 20
4.126521612649534
 10
7.867504062088019
 20
4.125657941346739
 10
7.932331663202927
 20
4.12481115802663
 10
7.997114759516405
 20
4.123986726448312
 10
8.061606985163377
 20
4.123190209711964
 10
8.125955364934291
 20
4.122422601228331
 10
8.190308513076788
 20
4.121685391113534
 10
8.254420063725795
 20
4.120985334560646
 10
8.32129488570659
 20
4.120296503549193
 10
8.387794595789598
 20
4.119659230555469
 10
8.45408608698019
 20
4.119077687904611
 10
8.51988723062643
 20
4.11856031958796
 10
8.581825993291225
 20
4.11813444440104
 10
8.643226724695846
 20
4.117777313237761
 10
8.704227707616178
 20
4.117492800400033
 10
8.764594497116098
 20
4.117286170964812
 10
8.824099800816862
 20
4.117161100551857
 10
8.882883490951545
 20
4.117118483230843
 10
8.941077492467252
 20
4.117159610435738
 10
8.998456102442432
 20
4.117283687437946
 10
9.057662588190721
 20
4.117500847027077
 10
9.115875663192758
 20
4.117803439940388
 10
9.1732375838674
 20
4.118188287263487
 10
9.229501189620981
 20
4.118648733144377
 10
9.281857909591684
 20
4.119150206889087
 10
9.33314174595643
 20
4.119709000433856
 10
9.383465550175994
 20
4.120321636841072
 10
9.432631434829723
 20
4.120981062894438
 10
9.480876229039521
 20
4.121686682547505
 10
9.527909856867482
 20
4.122430647855376
 10
9.572930039794934
 20
4.123195276106769
 10
9.616703690917981
 20
4.123989011293028
 10
9.661565722854625
 20
4.124855861510211
 10
9.704920154642753
 20
4.125747149631752
 10
9.746868711542777
 20
4.126662875657652
 10
9.787226619155898
 20
4.127596979782357
 10
9.81122583332826
 20
4.128179118479664
 10
9.834603172373467
 20
4.128766621595
 10
9.857380093963637
 20
4.129359787151589
 10
9.879518848490411
 20
4.129957323715462
  0
LINE
  5
BA
330
1F
100
AcDbEntity
  8
0
  6
CONTINUOUS
 62
     7
100
AcDbLine
 10
6.250797213943486
 20
6.900997226879372
 30
0.0
 11
5.442482731572476
 21
6.900997226879372
 31
0.0
  0
LINE
  5
BB
330
1F
100
AcDbEntity
  8
0
  6
CONTINUOUS
 62
     7
100
AcDbLine
 10
12.47309456450908
 20
4.185898468340808
 30
0.0
 11
9.879518848490411
 21
4.129957323715462
 31
0.0
  0
LWPOLYLINE
  5
BC
330
1F
100
AcDbEntity
  8
0
  6
CONTINUOUS
 62
     7
100
AcDbPolyline
 90
       48
 70
   128
 43
0.0
 10
12.47309456450908
 20
4.185898468340808
 10
12.53105292899578
 20
4.187154040183002
 10
12.58899937255352
 20
4.188411797528837
 10
12.64683852775066
 20
4.189669554874673
 10
12.70447462979127
 20
4.190925325399016
 10
12.761812708608
 20
4.192177122280373
 10
12.82048314991761
 20
4.193460708305612
 10
12.87880271855165
 20
4.194739724641417
 10
12.93667068266043
 20
4.196012184466297
 10
12.9939847209371
 20
4.197276100958759
 10
13.0506433068034
 20
4.19852968597946
 10
13.10506175143688
 20
4.199737971470131
 10
13.15882951203157
 20
4.20093652153549
 10
13.21185738030244
 20
4.202123647377266
 10
13.26405674401094
 20
4.203297858879341
 10
13.31533879223634
 20
4.204457665925596
 10
13.36714635474651
 20
4.205636447117105
 10
13.41794957899222
 20
4.206800227806344
 10
13.46765925668845
 20
4.207947418536122
 10
13.51618617955018
 20
4.20907662853139
 10
13.56344113929241
 20
4.210186367676034
 10
13.6079075950699
 20
4.211241071865334
 10
13.65115692400107
 20
4.212277994002277
 10
13.69311779919435
 20
4.213295842652891
 10
13.733718695076
 20
4.214293525065357
 10
13.77288828475445
 20
4.215269849146778
 10
13.81170044524639
 20
4.216252829080199
 10
13.8489694414851
 20
4.217213655953978
 10
13.88462970836132
 20
4.218151237016295
 10
13.9186160781301
 20
4.219064380174254
 10
13.95086358172863
 20
4.219951992676034
 10
13.9802752950109
 20
4.220783278788502
 10
14.00805245025128
 20
4.221591319089506
 10
14.03415034396618
 20
4.222375318850453
 10
14.05852387530774
 20
4.223134384001666
 10
14.08112814211021
 20
4.223867620473479
 10
14.10253713710278
 20
4.22459569120941
 10
14.12205467803448
 20
4.225296939855192
 10
14.13964857839713
 20
4.225970472341154
 10
14.15528565827181
 20
4.226615692620848
 10
14.16893353246818
 20
4.227231607283528
 10
14.18019563141634
 20
4.227797851408894
 10
14.18960104567975
 20
4.228337372785185
 10
14.1971364635544
 20
4.228849575365955
 10
14.2027885733363
 20
4.229334061786904
 10
14.2065442620036
 20
4.229790136660511
 10
14.20842160963188
 20
4.230230118280028
 10
14.2083777008769
 20
4.230363930707548
  0
LINE
  5
BD
330
1F
100
AcDbEntity
  8
0
  6
CONTINUOUS
 62
     7
100
AcDbLine
 10
8.936880530746472
 20
4.109091128354643
 30
0.0
 11
8.189824523361217
 21
4.109091128354643
 31
0.0
  0
LINE
  5
BE
330
1F
100
AcDbEntity
  8
0
  6
CONTINUOUS
 62
     7
100
AcDbLine
 10
10.71566909733582
 20
6.900997226879372
 30
0.0
 11
9.787211121948248
 21
6.900997226879372
 31
0.0
  0
LINE
  5
BF
330
1F
100
AcDbEntity
  8
0
  6
CONTINUOUS
 62
     7
100
AcDbLine
 10
4.896685383550014
 20
7.134330735052997
 30
0.0
 11
4.896685383550014
 21
6.900997226879372
 31
0.0
  0
LINE
  5
C0
330
1F
100
AcDbEntity
  8
0
  6
CONTINUOUS
 62
     7
100
AcDbLine
 10
5.442482731572476
 20
6.900997226879372
 30
0.0
 11
4.896685383550014
 21
6.900997226879372
 31
0.0
  0
LINE
  5
C1
330
1F
100
AcDbEntity
  8
0
  6
CONTINUOUS
 62
     7
100
AcDbLine
 10
16.23001903477479
 20
7.134330735052997
 30
0.0
 11
16.23001906810812
 21
6.900997226879372
 31
0.0
  0
LINE
  5
C2
330
1F
100
AcDbEntity
  8
0
  6
CONTINUOUS
 62
     7
100
AcDbLine
 10
16.23001906810812
 20
6.900997226879372
 30
0.0
 11
10.71566909733582
 21
6.900997226879372
 31
0.0
  0
LINE
  5
C3
330
1F
100
AcDbEntity
  8
0
  6
CONTINUOUS
 62
     7
100
AcDbLine
 10
8.563352527053844
 20
4.000284041410063
 30
0.0
 11
8.73668601297507
 21
4.000284041410063
 31
0.0
  0
LINE
  5
C4
330
1F
100
AcDbEntity
  8
0
  6
CONTINUOUS
 62
     7
100
AcDbLine
 10
8.390019041132621
 20
4.000284041410063
 30
0.0
 11
8.563352527053844
 21
4.000284041410063
 31
0.0
  0
LWPOLYLINE
  5
C5
330
1F
100
AcDbEntity
  8
0
  6
CONTINUOUS
 62
     7
100
AcDbPolyline
 90
       81
 70
   128
 43
0.0
 10
10.72025468134054
 20
6.900997226879372
 10
10.71324517511496
 20
6.894975170935565
 10
10.70558081252544
 20
6.887584194983417
 10
10.69838891608684
 20
6.879737839545185
 10
10.69169610920716
 20
6.871466304307555
 10
10.68552782320151
 20
6.862800583685809
 10
10.67990789992778
 20
6.853774056281025
 10
10.67485739969382
 20
6.844420100694273
 10
10.67039539598593
 20
6.83477487707672
 10
10.66653897546896
 20
6.824874545579527
 10
10.66330244325766
 20
6.814756855811054
 10
10.66069851500957
 20
6.804460749472553
 10
10.65873712483216
 20
6.79402437353668
 10
10.65742502791851
 20
6.783487464433286
 10
10.65676778736878
 20
6.77289055332082
 10
10.65676778736878
 20
6.762273376629128
 10
10.65742502791851
 20
6.75167646551666
 10
10.65873712483216
 20
6.741139556413268
 10
10.66069851500957
 20
6.730703577841694
 10
10.66330244325766
 20
6.720407074138893
 10
10.66653897546896
 20
6.710289384370421
 10
10.67039539598593
 20
6.700389052873228
 10
10.67485739969382
 20
6.690743829255676
 10
10.67990789992778
 20
6.681390271033222
 10
10.68552782320151
 20
6.672363346264138
 10
10.69169610920716
 20
6.663697625642393
 10
10.69838891608684
 20
6.655426090404763
 10
10.70558081252544
 20
6.647579734966531
 10
10.71324517511496
 20
6.640188759014383
 10
10.72135220153301
 20
6.633280978049213
 10
10.7298716920929
 20
6.626883015479023
 10
10.73877066555787
 20
6.621018315797424
 10
10.74801614069113
 20
6.615709926133726
 10
10.75757275207012
 20
6.61097731733856
 10
10.76740394217937
 20
6.606838768169656
 10
10.77747275613913
 20
6.603310173198953
 10
10.78774064961243
 20
6.600404645448302
 10
10.79816907826234
 20
6.59813331111806
 10
10.80871830565898
 20
6.596504912222797
 10
10.81934859537253
 20
6.59552501186269
 10
10.83001901888022
 20
6.595198378409321
 10
10.84068944238791
 20
6.59552501186269
 10
10.85131973210145
 20
6.596504912222797
 10
10.86186895949809
 20
6.59813331111806
 10
10.872297388148
 20
6.600404645448302
 10
10.8825656789856
 20
6.603310173198953
 10
10.89263409558106
 20
6.606838768169656
 10
10.90246568305461
 20
6.61097731733856
 10
10.9120218970693
 20
6.615709926133726
 10
10.92126737220256
 20
6.621018315797424
 10
10.93016634566753
 20
6.626883015479023
 10
10.93868583622743
 20
6.633280978049213
 10
10.94679286264548
 20
6.640188759014383
 10
10.95445722523499
 20
6.647579734966531
 10
10.96164912167359
 20
6.655426090404763
 10
10.96834192855327
 20
6.663697625642393
 10
10.97451021455893
 20
6.672363346264138
 10
10.98013013783265
 20
6.681390271033222
 10
10.98518063806662
 20
6.690743829255676
 10
10.9896426417745
 20
6.700389052873228
 10
10.99349906229147
 20
6.710289384370421
 10
10.99673559450278
 20
6.720407074138893
 10
10.99933952275086
 20
6.730703577841694
 10
11.00130091292827
 20
6.741139556413268
 10
11.00261300984193
 20
6.75167646551666
 10
11.00327025039165
 20
6.762273376629128
 10
11.00327025039165
 20
6.77289055332082
 10
11.00261300984193
 20
6.783487464433286
 10
11.00130091292827
 20
6.79402437353668
 10
10.99933952275086
 20
6.804460749472553
 10
10.99673559450278
 20
6.814756855811054
 10
10.99349906229147
 20
6.824874545579527
 10
10.9896426417745
 20
6.83477487707672
 10
10.98518063806662
 20
6.844420100694273
 10
10.98013013783265
 20
6.853774056281025
 10
10.97451021455893
 20
6.862800583685809
 10
10.96834192855327
 20
6.871466304307555
 10
10.96164912167359
 20
6.879737839545185
 10
10.95445722523499
 20
6.887584194983417
 10
10.94679286264548
 20
6.894975170935565
 10
10.93978335641989
 20
6.900997226879372
  0
ARC
  5
C6
330
1F
100
AcDbEntity
  8
0
  6
CONTINUOUS
 62
     7
100
AcDbCircle
 10
10.83001901888021
 20
6.770761759178918
 30
0.0
 40
0.1733434496437019
100
AcDbArc
 50
180.7055501865254
 51
359.2944498137622
  0
LINE
  5
C7
330
1F
100
AcDbEntity
  8
0
  6
CONTINUOUS
 62
     7
100
AcDbLine
 10
6.250797213943486
 20
7.134330735052997
 30
0.0
 11
6.250797213943486
 21
6.900997226879372
 31
0.0
  0
LINE
  5
C8
330
1F
100
AcDbEntity
  8
0
  6
CONTINUOUS
 62
     7
100
AcDbLine
 10
9.787211121948248
 20
7.134330735052997
 30
0.0
 11
9.787211121948248
 21
6.900997226879372
 31
0.0
  0
LINE
  5
C9
330
1F
100
AcDbEntity
  8
0
  6
CONTINUOUS
 62
     7
100
AcDbLine
 10
5.442482731572476
 20
7.134330735052997
 30
0.0
 11
5.442482731572476
 21
6.900997226879372
 31
0.0
  0
LINE
  5
CA
330
1F
100
AcDbEntity
  8
0
  6
CONTINUOUS
 62
     7
100
AcDbLine
 10
10.71566909733582
 20
7.134330735052997
 30
0.0
 11
10.71566909733582
 21
6.900997226879372
 31
0.0
  0
LINE
  5
CB
330
1F
100
AcDbEntity
  8
0
  6
CONTINUOUS
 62
     7
100
AcDbLine
 10
12.47309456450908
 20
4.185898468340808
 30
0.0
 11
13.63136957271068
 21
6.900997226879372
 31
0.0
  0
ARC
  5
14E
330
1F
100
AcDbEntity
  8
MEASUREMENT
 62
     8
100
AcDbCircle
 10
13.72611489398889
 20
14.01878146453334
 30
0.0
 40
1.999038123002358
100
AcDbArc
 50
270.0002182168396
 51
90.00021821683885
  0
ARC
  5
14F
330
1F
100
AcDbEntity
  8
MEASUREMENT
 62
     8
100
AcDbCircle
 10
12.50252587217091
 20
14.02034784982571
 30
0.0
 40
1.693933488350212
100
AcDbArc
 50
269.2657260720277
 51
90.28853045870539
  0
ARC
  5
150
330
1F
100
AcDbEntity
  8
MEASUREMENT
 62
     8
100
AcDbCircle
 10
7.881430186777031
 20
13.53544338241988
 30
0.0
 40
2.331697734390714
100
AcDbArc
 50
89.62513029548421
 51
270.3748697045166
  0
ARC
  5
151
330
1F
100
AcDbEntity
  8
MEASUREMENT
 62
     8
100
AcDbCircle
 10
7.903435924290855
 20
13.51865988076858
 30
0.0
 40
2.599287061942747
100
AcDbArc
 50
89.85120546305369
 51
269.8512054630544
  0
POINT
  5
152
330
1F
100
AcDbEntity
  8
MEASUREMENT
 62
    27
100
AcDbPoint
 10
5.549791971367196
 20
13.51878334030856
 30
0.0
  0
POINT
  5
153
330
1F
100
AcDbEntity
  8
MEASUREMENT
 62
    27
100
AcDbPoint
 10
14.19645863803397
 20
14.01878334033935
 30
0.0
  0
POINT
  5
154
330
1F
100
AcDbEntity
  8
MEASUREMENT
 62
    27
100
AcDbPoint
 10
5.29772243702503
 20
13.5185008192808
 30
0.0
  0
POINT
  5
155
330
1F
100
AcDbEntity
  8
MEASUREMENT
 62
    27
100
AcDbPoint
 10
7.910186147140255
 20
16.11793817769533
 30
0.0
  0
POINT
  5
156
330
1F
100
AcDbEntity
  8
MEASUREMENT
 62
    27
100
AcDbPoint
 10
7.896685701441455
 20
10.91938158384183
 30
0.0
  0
POINT
  5
157
330
1F
100
AcDbEntity
  8
MEASUREMENT
 62
    27
100
AcDbPoint
 10
15.72622495883295
 20
14.01876735364155
 30
0.0
  0
LWPOLYLINE
  5
158
330
1F
100
AcDbEntity
  8
0
  6
CONTINUOUS
 62
     7
100
AcDbPolyline
 90
       94
 70
   128
 43
0.0
 10
12.48081773701478
 20
12.32655343359058
 10
12.53805846157838
 20
12.32737756714568
 10
12.59528766257732
 20
12.3301058704192
 10
12.65241036994427
 20
12.33473039612517
 10
12.70933320306906
 20
12.34124399170622
 10
12.76596079452007
 20
12.34963870987639
 10
12.82390485389202
 20
12.36024436300342
 10
12.88150241159567
 20
12.37283723498727
 10
12.93865353050996
 20
12.38739348397002
 10
12.99525787614951
 20
12.40388767863656
 10
13.05121491534679
 20
12.4222947850361
 10
13.10495943013002
 20
12.44201796199227
 10
13.15806120816041
 20
12.46353881503487
 10
13.21043302797446
 20
12.48681959455554
 10
13.26198687338004
 20
12.51182334567452
 10
13.31263572159578
 20
12.53851112669055
 10
13.36380213681031
 20
12.56773727084542
 10
13.41397792282869
 20
12.59873367295011
 10
13.46307506345877
 20
12.63144350990995
 10
13.51100574119061
 20
12.66580995863025
 10
13.55768193983207
 20
12.70177699074491
 10
13.60164036535392
 20
12.73810085599963
 10
13.64439676387279
 20
12.77590530063057
 10
13.68588100059002
 20
12.81512475952848
 10
13.7260225433426
 20
12.8556952570413
 10
13.76475145601401
 20
12.89755242015267
 10
13.8031273105062
 20
12.94197695399666
 10
13.83998006764223
 20
12.98774140025521
 10
13.87524555308789
 20
13.03476191506132
 10
13.90885959250897
 20
13.08295584664091
 10
13.94075781288911
 20
13.13224014585559
 10
13.96988382124076
 20
13.18079766576831
 10
13.99739414635469
 20
13.2303430333271
 10
14.02324468079378
 20
13.28079240466499
 10
14.04739111843874
 20
13.33206193591499
 10
14.06978875580598
 20
13.38406798189227
 10
14.09100602252453
 20
13.43836125677173
 10
14.11035428626507
 20
13.49340376203601
 10
14.12780155920158
 20
13.54909675265694
 10
14.14331565482586
 20
13.60534088755989
 10
14.15686418794761
 20
13.66203742171669
 10
14.16806072178652
 20
13.71713992899005
 10
14.17741984310915
 20
13.77263185327594
 10
14.18492863757581
 20
13.82842060869281
 10
14.19057379348249
 20
13.88441301331266
 10
14.19434180044303
 20
13.94051608388964
 10
14.19625272535453
 20
13.99836239164416
 10
14.19617186171979
 20
14.05629174853707
 10
14.19410258713534
 20
14.11420163457934
 10
14.19004808051557
 20
14.17198952978198
 10
14.18401152077487
 20
14.22955231810951
 10
14.17628576540123
 20
14.28498503511493
 10
14.16671047790021
 20
14.3401755585804
 10
14.15530453307599
 20
14.39503328944588
 10
14.1420870044149
 20
14.4494668339227
 10
14.12707676672112
 20
14.50338539426867
 10
14.10975744508873
 20
14.55831743225797
 10
14.09054945094556
 20
14.6126715038751
 10
14.06949013653567
 20
14.66635383114561
 10
14.04661665542097
 20
14.71927023873075
 10
14.02196655852766
 20
14.77132674997394
 10
13.99633954150648
 20
14.82102371201261
 10
13.9690533298569
 20
14.86988213604037
 10
13.94015620334119
 20
14.91782364194934
 10
13.90969644172163
 20
14.96476935292626
 10
13.87772252344262
 20
15.01064059084002
 10
13.84325037581892
 20
15.05669868931516
 10
13.80719632092288
 20
15.10159320578321
 10
13.76962612254591
 20
15.14524903839175
 10
13.7306059418437
 20
15.18759098594729
 10
13.6902017412898
 20
15.22854384725635
 10
13.649494153094
 20
15.26711192672793
 10
13.60749592565667
 20
15.30433979576175
 10
13.56427878323367
 20
15.34016943917021
 10
13.5199144500809
 20
15.37454304044788
 10
13.47447465045423
 20
15.40740268374825
 10
13.42661907457482
 20
15.4396129344438
 10
13.37765405757399
 20
15.47020392562295
 10
13.3276666222331
 20
15.49912707950021
 10
13.2767435926514
 20
15.52633352026686
 10
13.22497199161024
 20
15.55177457079634
 10
13.17354669355523
 20
15.57493147199695
 10
13.12134017728936
 20
15.59638983950361
 10
13.06843946559401
 20
15.61611857955997
 10
13.01493158125054
 20
15.63408659840966
 10
12.96090354704034
 20
15.65026270295525
 10
12.9048002777812
 20
15.66502399191603
 10
12.84817944152327
 20
15.67788250193343
 10
12.79114018065901
 20
15.68882074897831
 10
12.73377984944156
 20
15.69782105033939
 10
12.67619778894555
 20
15.70486577297593
 10
12.61559337559513
 20
15.71014957572366
 10
12.55482127451073
 20
15.71328249519413
 10
12.49399552924605
 20
15.71425986235683
  0
LWPOLYLINE
  5
159
330
1F
100
AcDbEntity
  8
0
  6
CONTINUOUS
 62
     7
100
AcDbPolyline
 90
      104
 70
   128
 43
0.0
 10
13.72610718193821
 20
16.01781956300481
 10
13.7896530845083
 20
16.01682322169685
 10
13.85313521010848
 20
16.0138074750239
 10
13.91690582218937
 20
16.00873293424987
 10
13.98049781901808
 20
16.00161738142712
 10
14.04381285293074
 20
15.99247124736848
 10
14.10651972078454
 20
15.98135423605981
 10
14.16884015185805
 20
15.9682425056432
 10
14.23326343479923
 20
15.95247916326267
 10
14.2971453088837
 20
15.93457944140179
 10
14.36037967784376
 20
15.91457309271239
 10
14.42475090606184
 20
15.89179040933989
 10
14.4883055506465
 20
15.86682008649253
 10
14.53896572374475
 20
15.84508475606981
 10
14.58901653869124
 20
15.82195557102902
 10
14.63840087436807
 20
15.79745930378976
 10
14.69774137122603
 20
15.76571729724946
 10
14.75602835598758
 20
15.73196557109895
 10
14.81316546781035
 20
15.69626551812234
 10
14.86905624651086
 20
15.65867838209214
 10
14.92360452992888
 20
15.61926570480409
 10
14.96884415729017
 20
15.58438377524756
 10
15.01308014177453
 20
15.54821925307654
 10
15.05625903788379
 20
15.51081654375138
 10
15.09698361340335
 20
15.47349022771261
 10
15.13667226019672
 20
15.43504930481655
 10
15.17528017543923
 20
15.39553748513602
 10
15.22090902113091
 20
15.34588174964331
 10
15.2648786721942
 20
15.29467559799892
 10
15.30711750371428
 20
15.24200794046464
 10
15.34755389077635
 20
15.18796808466655
 10
15.38611600978346
 20
15.13264504020753
 10
15.41737010263573
 20
15.08468605026943
 10
15.44724861962766
 20
15.03584451422435
 10
15.47571460587949
 20
14.986179937376
 10
15.50188799881111
 20
14.93738330349666
 10
15.52670732322505
 20
14.88787240729076
 10
15.55014362119805
 20
14.83770387317083
 10
15.57233030779333
 20
14.78654898152095
 10
15.59308673126668
 20
14.73478552644791
 10
15.61238795700839
 20
14.68247350996079
 10
15.63059479180148
 20
14.62847984776241
 10
15.64725751860112
 20
14.57397775794409
 10
15.66235507709951
 20
14.51903360034369
 10
15.67597056610555
 20
14.46326729600968
 10
15.68797817014824
 20
14.40712051535986
 10
15.69836229267886
 20
14.35066319451076
 10
15.70680389983625
 20
14.2961456074848
 10
15.71373418155482
 20
14.24140470172308
 10
15.71914474351377
 20
14.18650345946691
 10
15.72367926620613
 20
14.11929723566117
 10
15.72593684179754
 20
14.05191795970343
 10
15.72591747028798
 20
13.98448166196885
 10
15.72362120134801
 20
13.91710377678615
 10
15.71904808464815
 20
13.84990013584834
 10
15.71337724907369
 20
13.7929900183811
 10
15.70607339524398
 20
13.73625454252304
 10
15.69714605990221
 20
13.67976384307287
 10
15.68703860226442
 20
13.62572567607305
 10
15.67544296565821
 20
13.57197639291825
 10
15.66237295849293
 20
13.51857738639257
 10
15.64442555291623
 20
13.45391190991146
 10
15.62429532590677
 20
13.38983254577063
 10
15.60202111982475
 20
13.32644638364853
 10
15.57764192604194
 20
13.26385991717718
 10
15.55119663658907
 20
13.20218003735286
 10
15.5271324533539
 20
13.15054830854478
 10
15.50160408201982
 20
13.09961137121262
 10
15.47464311304857
 20
13.04943141286912
 10
15.44718290550679
 20
13.00158636714361
 10
15.41841109775672
 20
12.95450585032843
 10
15.38836072070568
 20
12.90824350660386
 10
15.34996628943254
 20
12.85292205160203
 10
15.30970037165452
 20
12.79887613599839
 10
15.26763419492214
 20
12.74619476939581
 10
15.2238389867859
 20
12.69496696139715
 10
15.17838577611416
 20
12.64528172160529
 10
15.13851086480587
 20
12.60432895963731
 10
15.09747713986207
 20
12.56452060684902
 10
15.05533427182008
 20
12.52590553904913
 10
15.01347492320507
 20
12.48965995456122
 10
14.97062226318488
 20
12.45457705801072
 10
14.92682516756822
 20
12.42069817528469
 10
14.87210452738572
 20
12.38100068713568
 10
14.81602539800772
 20
12.34314299568874
 10
14.75868543171057
 20
12.30718708977444
 10
14.70018208208848
 20
12.27319535558763
 10
14.6406130014178
 20
12.24123097405178
 10
14.58921134653856
 20
12.21569157585842
 10
14.5370865879771
 20
12.19163355176988
 10
14.4843030987498
 20
12.16908789620144
 10
14.43290780169933
 20
12.14883066162808
 10
14.38096175773113
 20
12.12999956752204
 10
14.32852457148998
 20
12.11261607155544
 10
14.26387757244874
 20
12.09337529485765
 10
14.19856061720023
 20
12.07631803498013
 10
14.13268675588736
 20
12.06146972323798
 10
14.06636824392447
 20
12.04885539358202
 10
13.99971833013663
 20
12.03850007996304
 10
13.9428837118861
 20
12.03148540800158
 10
13.88585955086518
 20
12.02610151912116
 10
13.82871637923686
 20
12.02235477115058
 10
13.77745300713349
 20
12.02039099678738
 10
13.72612248046367
 20
12.01974329298082
  0
LINE
  5
15A
330
1F
100
AcDbEntity
  8
0
  6
CONTINUOUS
 62
     7
100
AcDbLine
 10
12.48081773701478
 20
12.32655343359058
 30
0.0
 11
9.869171879521703
 21
12.33246899590241
 31
0.0
  0
LWPOLYLINE
  5
15B
330
1F
100
AcDbEntity
  8
0
  6
CONTINUOUS
 62
     7
100
AcDbPolyline
 90
        7
 70
   128
 43
0.0
 10
10.01961479766338
 20
12.02033337896412
 10
10.3162659226176
 20
12.0201279416218
 10
10.61292578958639
 20
12.02006078705535
 10
10.90958645128378
 20
12.02005363449798
 10
11.7995803573049
 20
12.02001628225391
 10
12.76285181624858
 20
12.01991296753629
 10
13.72612248046367
 20
12.01974329298082
  0
LINE
  5
15C
330
1F
100
AcDbEntity
  8
0
  6
CONTINUOUS
 62
     7
100
AcDbLine
 10
10.01961479766338
 20
12.02033337896412
 30
0.0
 11
9.869171879521703
 21
12.33246899590241
 31
0.0
  0
LWPOLYLINE
  5
15D
330
1F
100
AcDbEntity
  8
0
  6
CONTINUOUS
 62
     7
100
AcDbPolyline
 90
      103
 70
   128
 43
0.0
 10
10.83001901888022
 20
12.03899201696461
 10
10.81934859537253
 20
12.03902658765858
 10
10.80871830565898
 20
12.03912950501189
 10
10.79816907826234
 20
12.03930076902455
 10
10.78774064961243
 20
12.03953958496795
 10
10.77747275613913
 20
12.0398447607492
 10
10.76740394217937
 20
12.0402155016397
 10
10.75757275207012
 20
12.04065061554656
 10
10.74801614069113
 20
12.04114811564829
 10
10.73877066555787
 20
12.04170601512339
 10
10.7298716920929
 20
12.04232232715036
 10
10.72135220153301
 20
12.04299466754343
 10
10.71324517511496
 20
12.04372104948109
 10
10.70558081252544
 20
12.04449789668466
 10
10.69838891608684
 20
12.04532242760406
 10
10.69169610920716
 20
12.04619186068918
 10
10.68552782320151
 20
12.04710261966135
 10
10.67990789992778
 20
12.04805112824187
 10
10.67485739969382
 20
12.04903460488067
 10
10.67039539598593
 20
12.05004828120615
 10
10.66653897546896
 20
12.05108858093963
 10
10.66330244325766
 20
12.05215232516672
 10
10.66069851500957
 20
12.05323434815154
 10
10.65873712483216
 20
12.05433107361541
 10
10.65742502791851
 20
12.05543852791533
 10
10.65676778736878
 20
12.05655234004404
 10
10.65676778736878
 20
12.05766853635853
 10
10.65742502791851
 20
12.05878234848723
 10
10.65873712483216
 20
12.05988980278716
 10
10.66069851500957
 20
12.06098652825103
 10
10.66330244325766
 20
12.06206855123585
 10
10.66653897546896
 20
12.06313229546294
 10
10.67039539598593
 20
12.06417259519642
 10
10.67485739969382
 20
12.0651862715219
 10
10.67990789992778
 20
12.06616974816069
 10
10.68552782320151
 20
12.06711825674122
 10
10.69169610920716
 20
12.06802901571339
 10
10.69838891608684
 20
12.06889844879851
 10
10.70558081252544
 20
12.0697233770822
 10
10.71324517511496
 20
12.07049982692148
 10
10.72135220153301
 20
12.07122620885914
 10
10.7298716920929
 20
12.07189854925221
 10
10.73877066555787
 20
12.07251486127919
 10
10.74801614069113
 20
12.07307276075428
 10
10.75757275207012
 20
12.07357026085601
 10
10.76740394217937
 20
12.07400537476287
 10
10.77747275613913
 20
12.07437611565337
 10
10.78774064961243
 20
12.07468129143462
 10
10.79816907826234
 20
12.07492010737802
 10
10.80871830565898
 20
12.07509137139068
 10
10.81934859537253
 20
12.07519428874399
 10
10.83001901888022
 20
12.07522885943796
 10
10.84068944238791
 20
12.07519428874399
 10
10.85131973210145
 20
12.07509137139068
 10
10.86186895949809
 20
12.07492010737802
 10
10.872297388148
 20
12.07468129143462
 10
10.8825656789856
 20
12.07437611565337
 10
10.89263409558106
 20
12.07400537476287
 10
10.90246568305461
 20
12.07357026085601
 10
10.9120218970693
 20
12.07307276075428
 10
10.92126737220256
 20
12.07251486127919
 10
10.93016634566753
 20
12.07189854925221
 10
10.93868583622743
 20
12.07122620885914
 10
10.94679286264548
 20
12.07049982692148
 10
10.95445722523499
 20
12.0697233770822
 10
10.96164912167359
 20
12.06889844879851
 10
10.96834192855327
 20
12.06802901571339
 10
10.97451021455893
 20
12.06711825674122
 10
10.98013013783265
 20
12.06616974816069
 10
10.98518063806662
 20
12.0651862715219
 10
10.9896426417745
 20
12.06417259519642
 10
10.99349906229147
 20
12.06313229546294
 10
10.99673559450278
 20
12.06206855123585
 10
10.99933952275086
 20
12.06098652825103
 10
11.00130091292827
 20
12.05988980278716
 10
11.00261300984193
 20
12.05878234848723
 10
11.00327025039165
 20
12.05766853635853
 10
11.00327025039165
 20
12.05655234004403
 10
11.00261300984193
 20
12.05543852791533
 10
11.00130091292827
 20
12.05433107361541
 10
10.99933952275086
 20
12.05323434815154
 10
10.99673559450278
 20
12.05215232516672
 10
10.99349906229147
 20
12.05108858093963
 10
10.9896426417745
 20
12.05004828120614
 10
10.98518063806662
 20
12.04903460488066
 10
10.98013013783265
 20
12.04805112824187
 10
10.97451021455893
 20
12.04710261966134
 10
10.96834192855327
 20
12.04619186068918
 10
10.96164912167359
 20
12.04532242760405
 10
10.95445722523499
 20
12.04449789668466
 10
10.94679286264548
 20
12.04372104948109
 10
10.93868583622743
 20
12.04299466754342
 10
10.93016634566753
 20
12.04232232715036
 10
10.92126737220256
 20
12.04170601512338
 10
10.9120218970693
 20
12.04114811564828
 10
10.90246568305461
 20
12.04065061554656
 10
10.89263409558106
 20
12.0402155016397
 10
10.8825656789856
 20
12.0398447607492
 10
10.872297388148
 20
12.03953958496795
 10
10.86186895949809
 20
12.03930076902455
 10
10.85131973210145
 20
12.03912950501189
 10
10.84068944238791
 20
12.03902658765858
 10
10.83001901888022
 20
12.03899201696461
  0
LWPOLYLINE
  5
15E
330
1F
100
AcDbEntity
  8
0
  6
CONTINUOUS
 62
     7
100
AcDbPolyline
 90
        9
 70
   128
 43
0.0
 10
13.72610718193821
 20
16.01781956300481
 10
12.77760436319482
 20
16.01765237197622
 10
11.82909975631209
 20
16.01755039836312
 10
11.01685335420739
 20
16.01751413887089
 10
10.61073035183719
 20
16.01748135631626
 10
10.204607349467
 20
16.01747991587068
 10
9.806229772003213
 20
16.01754314646469
 10
9.407852591903727
 20
16.01757866089887
 10
8.611096642247558
 20
16.01759351238953
  0
LWPOLYLINE
  5
15F
330
1F
100
AcDbEntity
  8
0
  6
CONTINUOUS
 62
     7
100
AcDbPolyline
 90
      157
 70
   128
 43
0.0
 10
10.01961479766338
 20
12.02033337896412
 10
9.977456829778047
 20
11.96221527402943
 10
9.933675628733327
 20
11.90525628075348
 10
9.888324441345226
 20
11.8495207721526
 10
9.841456911794036
 20
11.79507192915028
 10
9.793126286895761
 20
11.74197293266998
 10
9.743401310674041
 20
11.69028736099945
 10
9.692272049021411
 20
11.63999097491648
 10
9.638143084279386
 20
11.58965286558217
 10
9.58259195271302
 20
11.54086606646921
 10
9.525685411524463
 20
11.49369018222239
 10
9.466161829065967
 20
11.44717153852529
 10
9.405310255121875
 20
11.40240368192739
 10
9.346422455540983
 20
11.36160628940013
 10
9.286383888951625
 20
11.32242179856048
 10
9.225264491470342
 20
11.28489233002411
 10
9.163134993942268
 20
11.24905920967804
 10
9.10006612721253
 20
11.21496495550222
 10
9.036128622126266
 20
11.18265089338369
 10
8.969589970342006
 20
11.15133262619721
 10
8.902164401443487
 20
11.12189905787852
 10
8.833932977747604
 20
11.09438436175731
 10
8.764978351028448
 20
11.06882191643463
 10
8.693429730168665
 20
11.04461209918406
 10
8.621207974187219
 20
11.02249202077932
 10
8.552082480819708
 20
11.00344992623078
 10
8.482403061620082
 20
10.98631279612926
 10
8.412251573633835
 20
10.971096922411
 10
8.341708284449264
 20
10.95781859701223
 10
8.270851872197473
 20
10.94649411186921
 10
8.199764193923956
 20
10.93713936155386
 10
8.126548232467655
 20
10.92958705569652
 10
8.05311928374736
 20
10.92410938884166
 10
7.979563973180139
 20
10.92071152672517
 10
7.90597131036886
 20
10.91939903244721
 10
7.830375931493128
 20
10.92022316600231
 10
7.754836183619186
 20
10.92324591622102
 10
7.683271668187464
 20
10.92814939166454
 10
7.611815235844934
 20
10.93503492022899
 10
7.54054874363709
 20
10.94389137571402
 10
7.469553253880824
 20
10.95470723455496
 10
7.398909828893031
 20
10.96747176791576
 10
7.328700325719202
 20
10.98217305486747
 10
7.257077000371301
 20
10.9992815747395
 10
7.185939254196171
 20
11.01842062617687
 10
7.115371328425094
 20
11.0395651752288
 10
7.045459053746546
 20
11.06269177740165
 10
6.97436263345846
 20
11.08850058858939
 10
6.904046636652635
 20
11.11636734947908
 10
6.83813264154562
 20
11.14468273466178
 10
6.772976022791551
 20
11.17483314817496
 10
6.708651484878547
 20
11.20678004568168
 10
6.645231348108934
 20
11.24048686966646
 10
6.58278793278504
 20
11.27591547315665
 10
6.521395148666388
 20
11.3130289012725
 10
6.459465128016161
 20
11.35288096413363
 10
6.398665211430875
 20
11.39448897982983
 10
6.339067719212858
 20
11.43780049627372
 10
6.280743382207242
 20
11.48276465083508
 10
6.222187779179899
 20
11.53064824089754
 10
6.165049177241017
 20
11.58021466876416
 10
6.112202904454559
 20
11.62876344666232
 10
6.060683033696501
 20
11.67879598285108
 10
6.010545990697234
 20
11.73025227532137
 10
5.961847406458548
 20
11.78307232206413
 10
5.914642911982229
 20
11.83719572370597
 10
5.868990522455861
 20
11.89256247823784
 10
5.823736291956594
 20
11.95069687510877
 10
5.780131123296114
 20
12.01011515602816
 10
5.738225879104627
 20
12.07074460332939
 10
5.698072216740938
 20
12.13251170461723
 10
5.658667188715631
 20
12.19711876854647
 10
5.621158383122776
 20
12.26284520770459
 10
5.587400696507786
 20
12.32610639875481
 10
5.555378697148656
 20
12.39032404567152
 10
5.525124174189264
 20
12.4554242386952
 10
5.496672095687881
 20
12.52133147860914
 10
5.47005584024558
 20
12.58797185565381
 10
5.445307197006242
 20
12.65527026797681
 10
5.421848398279842
 20
12.72503551786491
 10
5.400363705388404
 20
12.79546516086011
 10
5.380878549647031
 20
12.86647336627393
 10
5.36341756764223
 20
12.93797629023939
 10
5.347600879104633
 20
13.01189876541842
 10
5.333939494522114
 20
13.08624959931125
 10
5.322976213526428
 20
13.15721369728793
 10
5.313974322708149
 20
13.22850820367882
 10
5.306940974624655
 20
13.30005165880272
 10
5.301883321833314
 20
13.3717616095677
 10
5.298809311620098
 20
13.44355659629255
 10
5.297724507085186
 20
13.51535396720319
 10
5.298682949773175
 20
13.58906643535047
 10
5.301734707585676
 20
13.6627516840433
 10
5.306873422693912
 20
13.73632070367882
 10
5.314095916183496
 20
13.80968468333631
 10
5.323681137791977
 20
13.8848002448216
 10
5.335451863042221
 20
13.95960447137902
 10
5.348608594965642
 20
14.03010126894066
 10
5.363721153966294
 20
14.10026070421288
 10
5.380768082372056
 20
14.17000390038241
 10
5.399728717239407
 20
14.23925118590742
 10
5.420582395624825
 20
14.30792328661034
 10
5.443308454584786
 20
14.37594132567792
 10
5.468586387069731
 20
14.44508231625308
 10
5.495823325546295
 20
14.51350725636233
 10
5.524985096684804
 20
14.58113448764234
 10
5.556037527155588
 20
14.64788215304761
 10
5.589885812830637
 20
14.71549527789502
 10
5.625685157211335
 20
14.782096117192
 10
5.661445559890779
 20
14.84432038610527
 10
5.698940855097484
 20
14.9055789604321
 10
5.738124948572828
 20
14.96580418890068
 10
5.778951746058178
 20
15.02492792353381
 10
5.821376742752108
 20
15.08288231437751
 10
5.865352254938794
 20
15.13959931279569
 10
5.912108522486403
 20
15.19653247739225
 10
5.960476499628737
 20
15.25214172348727
 10
6.010398171178216
 20
15.30636128728935
 10
6.061812343032872
 20
15.35912510698387
 10
6.116154295038895
 20
15.41178014820167
 10
6.172003052464839
 20
15.46283381129651
 10
6.226499976547277
 20
15.50987717454978
 10
6.28231456064355
 20
15.5554166132743
 10
6.339378458094316
 20
15.59940156286308
 10
6.397628090611813
 20
15.64178185607342
 10
6.456995906265296
 20
15.68250712698051
 10
6.517404816380856
 20
15.72152820175239
 10
6.578869126073239
 20
15.75886370684056
 10
6.643276315760333
 20
15.79554922327745
 10
6.70871506316634
 20
15.83039116805144
 10
6.775107484888752
 20
15.86334727153528
 10
6.843905550074298
 20
15.89505863135406
 10
6.913598479660073
 20
15.92475197658289
 10
6.980366808008868
 20
15.95098095084576
 10
7.047885360153236
 20
15.97537181720483
 10
7.116077842147867
 20
15.99789979006199
 10
7.184865575861653
 20
16.0185399348075
 10
7.254169883163492
 20
16.0372674161727
 10
7.323912085922282
 20
16.05405734921841
 10
7.395966154169758
 20
16.06927650119213
 10
7.468451760045409
 20
16.0824512635206
 10
7.541281483403563
 20
16.09356683438368
 10
7.614367904098551
 20
16.10260833745547
 10
7.689677180679361
 20
16.10973089382398
 10
7.76516209228011
 20
16.11465617463338
 10
7.835167350204508
 20
16.11724897668111
 10
7.905267180831949
 20
16.11794861103443
 10
7.975386879674315
 20
16.11675738737332
 10
8.045448563329101
 20
16.11367756570724
 10
8.115376732579589
 20
16.10871135637509
 10
8.185093504023274
 20
16.10186106905686
 10
8.256359201502522
 20
16.09287919546512
 10
8.327375354202311
 20
16.0819238617554
 10
8.398061694534341
 20
16.06900877699601
 10
8.468336365453124
 20
16.05414765025523
 10
8.539976380101562
 20
16.03688405896571
 10
8.611096642247558
 20
16.01759351238953
  0
LINE
  5
160
330
1F
100
AcDbEntity
  8
0
  6
CONTINUOUS
 62
     7
100
AcDbLine
 10
16.23001903477482
 20
16.51878334030848
 30
0.0
 11
16.23001903477479
 21
11.51878334030848
 31
0.0
  0
LINE
  5
161
330
1F
100
AcDbEntity
  8
0
  6
CONTINUOUS
 62
     7
100
AcDbLine
 10
16.23001903477479
 20
11.51878334030848
 30
0.0
 11
10.71566909733582
 21
11.51878334030852
 31
0.0
  0
LINE
  5
162
330
1F
100
AcDbEntity
  8
0
  6
CONTINUOUS
 62
     7
100
AcDbLine
 10
5.442482731572476
 20
11.25211653059075
 30
0.0
 11
4.896685383550014
 21
11.25211653059075
 31
0.0
  0
LINE
  5
163
330
1F
100
AcDbEntity
  8
0
  6
CONTINUOUS
 62
     7
100
AcDbLine
 10
4.896685383550014
 20
11.25211653059075
 30
0.0
 11
4.896685383550051
 21
16.51878334030857
 31
0.0
  0
LINE
  5
164
330
1F
100
AcDbEntity
  8
0
  6
CONTINUOUS
 62
     7
100
AcDbLine
 10
4.896685383550051
 20
16.51878334030857
 30
0.0
 11
16.23001903477482
 21
16.51878334030848
 31
0.0
  0
ARC
  5
165
330
1F
100
AcDbEntity
  8
0
  6
CONTINUOUS
 62
     7
100
AcDbCircle
 10
5.442484625784562
 20
9.778796150229821
 30
0.0
 40
1.473321731768187
100
AcDbArc
 50
56.72673399797197
 51
90.000073663719
  0
ARC
  5
166
330
1F
100
AcDbEntity
  8
0
  6
CONTINUOUS
 62
     7
100
AcDbCircle
 10
10.71563440848212
 20
10.04550312226761
 30
0.0
 40
1.473280218449292
100
AcDbArc
 50
89.99865095255561
 51
129.0629810494897
  0
ARC
  5
167
330
1F
100
AcDbEntity
  8
0
  6
CONTINUOUS
 62
     7
100
AcDbCircle
 10
7.896685287817482
 20
13.51878501287063
 30
0.0
 40
3.000001492725961
100
AcDbArc
 50
236.7269867832208
 51
309.0630322782262
  0
LINE
  5
168
330
1F
100
AcDbEntity
  8
0
  6
CONTINUOUS
 62
     7
100
AcDbLine
 10
8.611096642247558
 20
16.01759351238953
 30
0.0
 11
8.680327039789872
 21
15.71033390308765
 31
0.0
  0
LWPOLYLINE
  5
169
330
1F
100
AcDbEntity
  8
0
  6
CONTINUOUS
 62
     7
100
AcDbPolyline
 90
      154
 70
   128
 43
0.0
 10
8.680327039789872
 20
15.71033390308765
 10
8.61963759047957
 20
15.73174801414557
 10
8.558342557978351
 20
15.75148490017005
 10
8.496513467859941
 20
15.76952394788809
 10
8.434221845698077
 20
15.7858444943562
 10
8.371538422337888
 20
15.80042577728975
 10
8.307405414016761
 20
15.81346364761738
 10
8.242892525426267
 20
15.82469748402981
 10
8.178076845240314
 20
15.83411616032668
 10
8.113034667404212
 20
15.8417085006371
 10
8.047843080591876
 20
15.8474633787607
 10
7.98025220814518
 20
15.85148152654716
 10
7.912573120824218
 20
15.85353118126937
 10
7.835510672958413
 20
15.85346030141263
 10
7.758428356877683
 20
15.85083233262448
 10
7.681454123886147
 20
15.84565571889628
 10
7.604715130559325
 20
15.83793905323097
 10
7.528336149286944
 20
15.82769082929044
 10
7.463301918736814
 20
15.81691455786774
 10
7.398573658696531
 20
15.80429491346428
 10
7.334228457840004
 20
15.78984823768684
 10
7.270344199569739
 20
15.77359077280113
 10
7.2052328803457
 20
15.75501279975324
 10
7.140689792068519
 20
15.73454824035713
 10
7.079912127883948
 20
15.71335789506981
 10
7.01970984720361
 20
15.69047994360674
 10
6.960150501958249
 20
15.66594269817421
 10
6.901304028264402
 20
15.63977407361417
 10
6.843237183324216
 20
15.61200248147398
 10
6.786023876897213
 20
15.58266497597445
 10
6.729641856582678
 20
15.55175778215477
 10
6.67245398147078
 20
15.5182869925633
 10
6.616230112147049
 20
15.48319436058749
 10
6.561040184728023
 20
15.44652270223051
 10
6.505740584762609
 20
15.40743655905475
 10
6.45160208327742
 20
15.36675768042951
 10
6.401262384485916
 20
15.3266440525189
 10
6.352024179529861
 20
15.28512832468102
 10
6.303942304682448
 20
15.24225977008889
 10
6.257073185674066
 20
15.19808736389229
 10
6.21147086404931
 20
15.15266047860533
 10
6.167191765538566
 20
15.10603802348524
 10
6.124217611384106
 20
15.0582099650835
 10
6.081330877375318
 20
15.00769512797743
 10
6.039891344141675
 20
14.95596912448952
 10
5.999949874313386
 20
14.9030949368611
 10
5.960704586736074
 20
14.84790580417067
 10
5.923082929682445
 20
14.79159809097995
 10
5.882287126612377
 20
14.72621259038995
 10
5.843649806411773
 20
14.65945538824151
 10
5.80723136845401
 20
14.59143834258467
 10
5.773092212112457
 20
14.52227351015161
 10
5.741291147303292
 20
14.45207235162805
 10
5.715952815444975
 20
14.39121084357649
 10
5.692340634099353
 20
14.32963090087325
 10
5.670480829310126
 20
14.26740722800643
 10
5.65040201130679
 20
14.204614330782
 10
5.631640853317287
 20
14.13955049659163
 10
5.614782275589014
 20
14.07396810199172
 10
5.597934824061101
 20
13.99877584919681
 10
5.583578846684799
 20
13.92300404057254
 10
5.571732622217838
 20
13.84677804455509
 10
5.56241760833234
 20
13.77022322958062
 10
5.555651289057437
 20
13.69346496408532
 10
5.551890633336407
 20
13.62765726392816
 10
5.549996795089744
 20
13.56174307013899
 10
5.549969774317446
 20
13.49580185557753
 10
5.551811160476705
 20
13.42991289442132
 10
5.555648110143047
 20
13.36231745228519
 10
5.561451218358379
 20
13.29486267711073
 10
5.570445956619282
 20
13.21834859197686
 10
5.581983031662007
 20
13.14211226448764
 10
5.596038601628642
 20
13.06627846703281
 10
5.612590414118467
 20
12.99097197200209
 10
5.631614627273577
 20
12.91631794914951
 10
5.649850469660459
 20
12.85298920616855
 10
5.669881603947974
 20
12.79017822886854
 10
5.691683393549618
 20
12.72795932437331
 10
5.715231201878882
 20
12.66640838926385
 10
5.741225979558326
 20
12.60390854820957
 10
5.769029559524551
 20
12.54219151482334
 10
5.802842082412735
 20
12.47298694596042
 10
5.838960907689427
 20
12.40488585775445
 10
5.877323251795464
 20
12.3379983201161
 10
5.917865536443088
 20
12.27243440295607
 10
5.960524978073133
 20
12.20830457354933
 10
5.998691024215711
 20
12.15459800705661
 10
6.038380565078747
 20
12.10197386091302
 10
6.079544327489229
 20
12.0504949186777
 10
6.122133038274141
 20
12.00022396390984
 10
6.167345942886363
 20
11.9498675758178
 10
6.214006048273732
 20
11.90084911331882
 10
6.268811327051809
 20
11.84675789818515
 10
6.325426997573862
 20
11.79447151169528
 10
6.383756897679656
 20
11.744072208259
 10
6.44370565993755
 20
11.695643434379
 10
6.505176327458708
 20
11.64926784182935
 10
6.55895879053244
 20
11.61123809164116
 10
6.613819700312307
 20
11.57473342563063
 10
6.669691504867563
 20
11.53979675914197
 10
6.726509036453255
 20
11.50647180224805
 10
6.785829963119514
 20
11.47393481875806
 10
6.846071980229703
 20
11.44313829089551
 10
6.915680668584195
 20
11.41025202418714
 10
6.986399592788703
 20
11.37966689413139
 10
7.058111927739468
 20
11.3514293923512
 10
7.130698464146939
 20
11.32558640783379
 10
7.204041582178757
 20
11.30218443220207
 10
7.267367940973924
 20
11.28410991972038
 10
7.331206899714158
 20
11.26783109650362
 10
7.395481369725552
 20
11.25336624130953
 10
7.460114262334194
 20
11.24073403026013
 10
7.526846827896124
 20
11.22967299764701
 10
7.593873443038947
 20
11.22055825536796
 10
7.67044236444601
 20
11.21256964351086
 10
7.747298182876594
 20
11.2071197921569
 10
7.824313741755174
 20
11.20421267494906
 10
7.901362679234829
 20
11.20385306025891
 10
7.97831704401144
 20
11.20604571645805
 10
8.044055404098516
 20
11.20994862859794
 10
8.10968329691061
 20
11.21571358984061
 10
8.175122044316616
 20
11.2233326529001
 10
8.24029296818543
 20
11.23279667839754
 10
8.306924603215541
 20
11.24443587606498
 10
8.37319066309103
 20
11.25800546949454
 10
8.448149464360561
 20
11.27580460851737
 10
8.522539239954635
 20
11.29609244014172
 10
8.596239985855108
 20
11.31883121475923
 10
8.669130903315235
 20
11.34398238803295
 10
8.741091193588264
 20
11.37150821035453
 10
8.80188872598776
 20
11.39693396235851
 10
8.861968618464159
 20
11.42407791758923
 10
8.921258550715137
 20
11.45290669744559
 10
8.979686202438362
 20
11.48338692332653
 10
9.038773478897102
 20
11.51639915451753
 10
9.09687688135275
 20
11.55111170754182
 10
9.151238701573699
 20
11.58571895902701
 10
9.204653205307016
 20
11.6218377843037
 10
9.257059198450734
 20
11.65942487066336
 10
9.308396281631479
 20
11.69843770012605
 10
9.358604850204477
 20
11.73883335734752
 10
9.407621325881969
 20
11.78055978760468
 10
9.455465576878877
 20
11.8236249381835
 10
9.503507715296438
 20
11.8693758740559
 10
9.55023616734315
 20
11.91648698792207
 10
9.595592520467134
 20
11.96490066195873
 10
9.640499057205213
 20
12.01569534287202
 10
9.683906338445041
 20
12.06777708674816
 10
9.717232090067557
 20
12.1099581017628
 10
9.749578338694266
 20
12.15290404305207
 10
9.780918858281467
 20
12.19658033992198
 10
9.81138517641196
 20
12.24118686661469
 10
9.840810797444675
 20
12.28649553602285
 10
9.869171879521703
 20
12.33246899590241
  0
LWPOLYLINE
  5
16A
330
1F
100
AcDbEntity
  8
0
  6
CONTINUOUS
 62
     7
100
AcDbPolyline
 90
        9
 70
   128
 43
0.0
 10
8.680327039789872
 20
15.71033390308765
 10
9.12484417540999
 20
15.71042852546123
 10
9.56935813211572
 20
15.71064250613597
 10
10.01387566510013
 20
15.71096779848483
 10
10.45838564816288
 20
15.71139243190831
 10
10.90290834688317
 20
15.71190364107834
 10
11.3474223035889
 20
15.71248871033734
 10
12.23643471979272
 20
15.71383468255744
 10
12.49399552924605
 20
15.71425986235683
  0
LWPOLYLINE
  5
16B
330
1F
100
AcDbEntity
  8
0
  6
CONTINUOUS
 62
     7
100
AcDbPolyline
 90
       35
 70
   128
 43
0.0
 10
10.6851324457245
 20
12.04716540322051
 10
10.68552782320151
 20
12.04722778941538
 10
10.69169610920716
 20
12.04813854838755
 10
10.69838891608684
 20
12.04900798147267
 10
10.70558081252544
 20
12.04983290975636
 10
10.71324517511496
 20
12.05060975695993
 10
10.72135220153301
 20
12.0513357415333
 10
10.7298716920929
 20
12.05200808192636
 10
10.73877066555787
 20
12.05262439395334
 10
10.74801614069113
 20
12.05318229342844
 10
10.75757275207012
 20
12.05367979353016
 10
10.76740394217937
 20
12.05411490743702
 10
10.77747275613913
 20
12.05448564832753
 10
10.78774064961243
 20
12.05479122147307
 10
10.79816907826234
 20
12.05502964005217
 10
10.80871830565898
 20
12.05520090406483
 10
10.81934859537253
 20
12.05530382141814
 10
10.83001901888022
 20
12.05533839211211
 10
10.84068944238791
 20
12.05530382141814
 10
10.85131973210145
 20
12.05520090406483
 10
10.86186895949809
 20
12.05502964005217
 10
10.872297388148
 20
12.05479122147307
 10
10.8825656789856
 20
12.05448564832753
 10
10.89263409558106
 20
12.05411490743702
 10
10.90246568305461
 20
12.05367979353016
 10
10.9120218970693
 20
12.05318229342844
 10
10.92126737220256
 20
12.05262439395334
 10
10.93016634566753
 20
12.05200808192636
 10
10.93868583622743
 20
12.05133574153329
 10
10.94679286264548
 20
12.05060975695993
 10
10.95445722523499
 20
12.04983290975636
 10
10.96164912167359
 20
12.04900798147267
 10
10.96834192855327
 20
12.04813854838754
 10
10.97451021455893
 20
12.04722778941538
 10
10.97490559203594
 20
12.04716540322051
  0
CIRCLE
  5
16C
330
1F
100
AcDbEntity
  8
0
  6
CONTINUOUS
 62
     7
100
AcDbCircle
 10
8.563352368108127
 20
12.08545000697522
 30
0.0
 40
0.3660478538564149
  0
CIRCLE
  5
16D
330
1F
100
AcDbEntity
  8
0
  6
CONTINUOUS
 62
     7
100
AcDbCircle
 10
8.563352368108127
 20
12.08545000697522
 30
0.0
 40
0.173333333333332
  0
LINE
  5
16E
330
1F
100
AcDbEntity
  8
0
  6
CONTINUOUS
 62
     7
100
AcDbLine
 10
12.48081773701478
 20
12.32655343359058
 30
0.0
 11
13.72612248046367
 21
12.01974329298082
 31
0.0
  0
LINE
  5
16F
330
1F
100
AcDbEntity
  8
0
  6
CONTINUOUS
 62
     7
100
AcDbLine
 10
13.72610718193821
 20
16.01781956300481
 30
0.0
 11
12.49399552924605
 21
15.71425986235683
 31
0.0
  0
ENDSEC
  0
SECTION
  2
OBJECTS
  0
DICTIONARY
  5
C
330
0
100
AcDbDictionary
  3
ACAD_GROUP
350
D
  3
ACAD_LAYOUT
350
1A
  3
ACAD_MLINESTYLE
350
17
  3
ACAD_PLOTSETTINGS
350
19
  3
ACAD_PLOTSTYLENAME
350
E
  3
ACDBHEADERROUNDTRIPXREC
350
388
  3
ACDBVARIABLEDICTIONARY
350
342
  0
DICTIONARY
  5
302
330
1F
100
AcDbDictionary
280
     1
  3
ACAD_LAYOUTSELFREF
360
3AA
  0
DICTIONARY
  5
304
330
1B
100
AcDbDictionary
280
     1
  3
ACAD_LAYOUTSELFREF
360
3A9
  0
DICTIONARY
  5
D
102
{ACAD_REACTORS
330
C
102
}
330
C
100
AcDbDictionary
  0
DICTIONARY
  5
1A
102
{ACAD_REACTORS
330
C
102
}
330
C
100
AcDbDictionary
  0
DICTIONARY
  5
17
102
{ACAD_REACTORS
330
C
102
}
330
C
100
AcDbDictionary
  3
STANDARD
350
18
  0
DICTIONARY
  5
19
102
{ACAD_REACTORS
330
C
102
}
330
C
100
AcDbDictionary
  0
ACDBDICTIONARYWDFLT
  5
E
102
{ACAD_REACTORS
330
C
102
}
330
C
100
AcDbDictionary
281
     1
  3
Normal
350
F
100
AcDbDictionaryWithDefault
340
F
  0
DICTIONARY
  5
388
102
{ACAD_REACTORS
330
C
102
}
330
C
100
AcDbDictionary
  3
CEPSNTYPE
350
392
  3
DIMSTYLEDATA
350
396
  3
FINGERPRINTGUID
350
393
  3
HYPERLINKBASE
350
38B
  3
INSUNITS
350
391
  3
LAYOUTDICT
350
38D
  3
LWETCUNION
350
390
  3
PLOTSETDICT
350
38E
  3
PLOTSTYLNAMDICT
350
38F
  3
PSVPSCALE
350
395
  3
PUCSBASE
350
399
  3
PUCSORGBACK
350
39F
  3
PUCSORGBOTTOM
350
39B
  3
PUCSORGFRONT
350
39E
  3
PUCSORGLEFT
350
39C
  3
PUCSORGRIGHT
350
39D
  3
PUCSORGTOP
350
39A
  3
PUCSORTHOREF
350
397
  3
PUCSORTHOVIEW
350
398
  3
STYLESHEET
350
38C
  3
TSTACKALIGN
350
389
  3
TSTACKSIZE
350
38A
  3
UCSBASE
350
3A2
  3
UCSORGBACK
350
3A8
  3
UCSORGBOTTOM
350
3A4
  3
UCSORGFRONT
350
3A7
  3
UCSORGLEFT
350
3A5
  3
UCSORGRIGHT
350
3A6
  3
UCSORGTOP
350
3A3
  3
UCSORTHOREF
350
3A0
  3
UCSORTHOVIEW
350
3A1
  3
VERSIONGUID
350
394
  0
DICTIONARY
  5
342
102
{ACAD_REACTORS
330
C
102
}
330
C
100
AcDbDictionary
  3
DIMASSOC
350
343
  0
XRECORD
  5
3AA
102
{ACAD_REACTORS
330
302
102
}
330
302
100
AcDbXrecord
340
1F
  0
XRECORD
  5
3A9
102
{ACAD_REACTORS
330
304
102
}
330
304
100
AcDbXrecord
340
1B
  0
MLINESTYLE
  5
18
102
{ACAD_REACTORS
330
17
102
}
330
17
100
AcDbMlineStyle
  2
STANDARD
 70
     0
  3

 62
   256
 51
90.0
 52
90.0
 71
     2
 49
0.5
 62
   256
  6
BYLAYER
 49
-0.5
 62
   256
  6
BYLAYER
  0
ACDBPLACEHOLDER
  5
F
102
{ACAD_REACTORS
330
E
102
}
330
E
100
AcDbPlaceHolder
280
     0
  0
XRECORD
  5
392
102
{ACAD_REACTORS
330
388
102
}
330
388
100
AcDbXrecord
 90
        0
  0
XRECORD
  5
396
102
{ACAD_REACTORS
330
388
102
}
330
388
100
AcDbXrecord
1000
DSTYLE
1002
{
1070
   278
 70
    44
1002
}
  0
XRECORD
  5
393
102
{ACAD_REACTORS
330
388
102
}
330
388
100
AcDbXrecord
  1
{21A968E4-AF55-4C8B-A060-41372ACBA765}
  0
XRECORD
  5
38B
102
{ACAD_REACTORS
330
388
102
}
330
388
100
AcDbXrecord
  1

  0
XRECORD
  5
391
102
{ACAD_REACTORS
330
388
102
}
330
388
100
AcDbXrecord
 90
        4
  0
XRECORD
  5
38D
102
{ACAD_REACTORS
330
388
102
}
330
388
100
AcDbXrecord
340
1A
  0
XRECORD
  5
390
102
{ACAD_REACTORS
330
388
102
}
330
388
100
AcDbXrecord
 90
    10781
  0
XRECORD
  5
38E
102
{ACAD_REACTORS
330
388
102
}
330
388
100
AcDbXrecord
340
19
  0
XRECORD
  5
38F
102
{ACAD_REACTORS
330
388
102
}
330
388
100
AcDbXrecord
340
E
  0
XRECORD
  5
395
102
{ACAD_REACTORS
330
388
102
}
330
388
100
AcDbXrecord
 40
0.0
  0
XRECORD
  5
399
102
{ACAD_REACTORS
330
388
102
}
330
388
100
AcDbXrecord
340
0
  0
XRECORD
  5
39F
102
{ACAD_REACTORS
330
388
102
}
330
388
100
AcDbXrecord
 10
0.0
 20
0.0
 30
0.0
  0
XRECORD
  5
39B
102
{ACAD_REACTORS
330
388
102
}
330
388
100
AcDbXrecord
 10
0.0
 20
0.0
 30
0.0
  0
XRECORD
  5
39E
102
{ACAD_REACTORS
330
388
102
}
330
388
100
AcDbXrecord
 10
0.0
 20
0.0
 30
0.0
  0
XRECORD
  5
39C
102
{ACAD_REACTORS
330
388
102
}
330
388
100
AcDbXrecord
 10
0.0
 20
0.0
 30
0.0
  0
XRECORD
  5
39D
102
{ACAD_REACTORS
330
388
102
}
330
388
100
AcDbXrecord
 10
0.0
 20
0.0
 30
0.0
  0
XRECORD
  5
39A
102
{ACAD_REACTORS
330
388
102
}
330
388
100
AcDbXrecord
 10
0.0
 20
0.0
 30
0.0
  0
XRECORD
  5
397
102
{ACAD_REACTORS
330
388
102
}
330
388
100
AcDbXrecord
340
0
  0
XRECORD
  5
398
102
{ACAD_REACTORS
330
388
102
}
330
388
100
AcDbXrecord
 70
     0
  0
XRECORD
  5
38C
102
{ACAD_REACTORS
330
388
102
}
330
388
100
AcDbXrecord
  1

  0
XRECORD
  5
389
102
{ACAD_REACTORS
330
388
102
}
330
388
100
AcDbXrecord
 90
        1
  0
XRECORD
  5
38A
102
{ACAD_REACTORS
330
388
102
}
330
388
100
AcDbXrecord
 90
       70
  0
XRECORD
  5
3A2
102
{ACAD_REACTORS
330
388
102
}
330
388
100
AcDbXrecord
340
0
  0
XRECORD
  5
3A8
102
{ACAD_REACTORS
330
388
102
}
330
388
100
AcDbXrecord
 10
0.0
 20
0.0
 30
0.0
  0
XRECORD
  5
3A4
102
{ACAD_REACTORS
330
388
102
}
330
388
100
AcDbXrecord
 10
0.0
 20
0.0
 30
0.0
  0
XRECORD
  5
3A7
102
{ACAD_REACTORS
330
388
102
}
330
388
100
AcDbXrecord
 10
0.0
 20
0.0
 30
0.0
  0
XRECORD
  5
3A5
102
{ACAD_REACTORS
330
388
102
}
330
388
100
AcDbXrecord
 10
0.0
 20
0.0
 30
0.0
  0
XRECORD
  5
3A6
102
{ACAD_REACTORS
330
388
102
}
330
388
100
AcDbXrecord
 10
0.0
 20
0.0
 30
0.0
  0
XRECORD
  5
3A3
102
{ACAD_REACTORS
330
388
102
}
330
388
100
AcDbXrecord
 10
0.0
 20
0.0
 30
0.0
  0
XRECORD
  5
3A0
102
{ACAD_REACTORS
330
388
102
}
330
388
100
AcDbXrecord
340
0
  0
XRECORD
  5
3A1
102
{ACAD_REACTORS
330
388
102
}
330
388
100
AcDbXrecord
 70
     0
  0
XRECORD
  5
394
102
{ACAD_REACTORS
330
388
102
}
330
388
100
AcDbXrecord
  1
{FFBD9D56-A8C9-4FCE-8AB6-F09184D14BC8}
  0
DICTIONARYVAR
  5
343
102
{ACAD_REACTORS
330
342
102
}
330
342
100
DictionaryVariables
280
     0
  1
1
  0
ENDSEC
  0
EOF
