  0
SECTION
  2
HEADER
  9
$ACADVER
  1
AC1014
  9
$ACADMAINTVER
 70
     9
  9
$DWGCODEPAGE
  3
ANSI_1250
  9
$INSBASE
 10
0.0
 20
0.0
 30
0.0
  9
$EXTMIN
 10
2.038792685675258
 20
1.462090528769497
 30
0.0
  9
$EXTMAX
 10
16.61508714238152
 20
17.85461257567676
 30
0.0
  9
$LIMMIN
 10
0.0
 20
0.0
  9
$LIMMAX
 10
0.0
 20
0.0
  9
$ORTHOMODE
 70
     1
  9
$REGENMODE
 70
     1
  9
$FILLMODE
 70
     1
  9
$QTEXTMODE
 70
     0
  9
$MIRRTEXT
 70
     1
  9
$DRAGMODE
 70
     2
  9
$LTSCALE
 40
1.0
  9
$OSMODE
 70
  3007
  9
$ATTMODE
 70
     1
  9
$TEXTSIZE
 40
2.5
  9
$TRACEWID
 40
1.0
  9
$TEXTSTYLE
  7
STANDARD
  9
$CLAYER
  8
0
  9
$CELTYPE
  6
BYLAYER
  9
$CECOLOR
 62
   256
  9
$CELTSCALE
 40
1.0
  9
$DELOBJ
 70
     1
  9
$DISPSILH
 70
     0
  9
$DIMSCALE
 40
1.0
  9
$DIMASZ
 40
0.3
  9
$DIMEXO
 40
0.1
  9
$DIMDLI
 40
3.75
  9
$DIMRND
 40
0.0
  9
$DIMDLE
 40
0.0
  9
$DIMEXE
 40
0.1
  9
$DIMTP
 40
0.0
  9
$DIMTM
 40
0.0
  9
$DIMTXT
 40
0.2822222222222222
  9
$DIMCEN
 40
2.5
  9
$DIMTSZ
 40
0.0
  9
$DIMTOL
 70
     0
  9
$DIMLIM
 70
     0
  9
$DIMTIH
 70
     1
  9
$DIMTOH
 70
     1
  9
$DIMSE1
 70
     0
  9
$DIMSE2
 70
     0
  9
$DIMTAD
 70
     1
  9
$DIMZIN
 70
     0
  9
$DIMBLK
  1

  9
$DIMASO
 70
     1
  9
$DIMSHO
 70
     1
  9
$DIMPOST
  1

  9
$DIMAPOST
  1

  9
$DIMALT
 70
     0
  9
$DIMALTD
 70
     3
  9
$DIMALTF
 40
0.3937007874015748
  9
$DIMLFAC
 40
10.0
  9
$DIMTOFL
 70
     1
  9
$DIMTVP
 40
0.0
  9
$DIMTIX
 70
     0
  9
$DIMSOXD
 70
     0
  9
$DIMSAH
 70
     0
  9
$DIMBLK1
  1

  9
$DIMBLK2
  1

  9
$DIMSTYLE
  2
ISO-25
  9
$DIMCLRD
 70
     0
  9
$DIMCLRE
 70
     0
  9
$DIMCLRT
 70
     0
  9
$DIMTFAC
 40
1.0
  9
$DIMGAP
 40
0.1524
  9
$DIMJUST
 70
     0
  9
$DIMSD1
 70
     0
  9
$DIMSD2
 70
     0
  9
$DIMTOLJ
 70
     0
  9
$DIMTZIN
 70
     0
  9
$DIMALTZ
 70
     0
  9
$DIMALTTZ
 70
     0
  9
$DIMFIT
 70
     3
  9
$DIMUPT
 70
     0
  9
$DIMUNIT
 70
     2
  9
$DIMDEC
 70
     2
  9
$DIMTDEC
 70
     2
  9
$DIMALTU
 70
     2
  9
$DIMALTTD
 70
     3
  9
$DIMTXSTY
  7
STANDARD
  9
$DIMAUNIT
 70
     0
  9
$LUNITS
 70
     2
  9
$LUPREC
 70
     1
  9
$SKETCHINC
 40
1.0
  9
$FILLETRAD
 40
10.0
  9
$AUNITS
 70
     0
  9
$AUPREC
 70
     0
  9
$MENU
  1
.
  9
$ELEVATION
 40
0.0
  9
$PELEVATION
 40
0.0
  9
$THICKNESS
 40
0.0
  9
$LIMCHECK
 70
     0
  9
$BLIPMODE
 70
     0
  9
$CHAMFERA
 40
10.0
  9
$CHAMFERB
 40
10.0
  9
$CHAMFERC
 40
20.0
  9
$CHAMFERD
 40
0.0
  9
$SKPOLY
 70
     0
  9
$TDCREATE
 40
2453964.574879143
  9
$TDUPDATE
 40
2453966.375466574
  9
$TDINDWG
 40
0.0166448032
  9
$TDUSRTIMER
 40
0.0166448032
  9
$USRTIMER
 70
     1
  9
$ANGBASE
 50
0.0
  9
$ANGDIR
 70
     0
  9
$PDMODE
 70
     0
  9
$PDSIZE
 40
-1.0
  9
$PLINEWID
 40
0.0
  9
$COORDS
 70
     2
  9
$SPLFRAME
 70
     0
  9
$SPLINETYPE
 70
     6
  9
$SPLINESEGS
 70
     8
  9
$ATTDIA
 70
     0
  9
$ATTREQ
 70
     1
  9
$HANDLING
 70
 22529
  9
$HANDSEED
  5
1C0
  9
$SURFTAB1
 70
     6
  9
$SURFTAB2
 70
     6
  9
$SURFTYPE
 70
     6
  9
$SURFU
 70
     6
  9
$SURFV
 70
     6
  9
$UCSNAME
  2

  9
$UCSORG
 10
0.0
 20
0.0
 30
0.0
  9
$UCSXDIR
 10
1.0
 20
0.0
 30
0.0
  9
$UCSYDIR
 10
0.0
 20
1.0
 30
0.0
  9
$PUCSNAME
  2

  9
$PUCSORG
 10
0.0
 20
0.0
 30
0.0
  9
$PUCSXDIR
 10
1.0
 20
0.0
 30
0.0
  9
$PUCSYDIR
 10
0.0
 20
1.0
 30
0.0
  9
$USERI1
 70
     0
  9
$USERI2
 70
     0
  9
$USERI3
 70
     0
  9
$USERI4
 70
     0
  9
$USERI5
 70
     0
  9
$USERR1
 40
0.0
  9
$USERR2
 40
0.0
  9
$USERR3
 40
0.0
  9
$USERR4
 40
0.0
  9
$USERR5
 40
0.0
  9
$WORLDVIEW
 70
     1
  9
$SHADEDGE
 70
     3
  9
$SHADEDIF
 70
    70
  9
$TILEMODE
 70
     1
  9
$MAXACTVP
 70
    48
  9
$PINSBASE
 10
0.0
 20
0.0
 30
0.0
  9
$PLIMCHECK
 70
     0
  9
$PEXTMIN
 10
1.000000000000000E+20
 20
1.000000000000000E+20
 30
1.000000000000000E+20
  9
$PEXTMAX
 10
-1.000000000000000E+20
 20
-1.000000000000000E+20
 30
-1.000000000000000E+20
  9
$PLIMMIN
 10
0.0
 20
0.0
  9
$PLIMMAX
 10
420.0
 20
297.0
  9
$UNITMODE
 70
     0
  9
$VISRETAIN
 70
     1
  9
$PLINEGEN
 70
     0
  9
$PSLTSCALE
 70
     1
  9
$TREEDEPTH
 70
  3020
  9
$PICKSTYLE
 70
     1
  9
$CMLSTYLE
  2
STANDARD
  9
$CMLJUST
 70
     0
  9
$CMLSCALE
 40
20.0
  9
$PROXYGRAPHICS
 70
     1
  9
$MEASUREMENT
 70
     1
  0
ENDSEC
  0
SECTION
  2
CLASSES
  0
CLASS
  1
ACDBDICTIONARYWDFLT
  2
AcDbDictionaryWithDefault
  3
AutoCAD 2000
 90
        0
280
     0
281
     0
  0
CLASS
  1
ACDBPLACEHOLDER
  2
AcDbPlaceHolder
  3
AutoCAD 2000
 90
        0
280
     0
281
     0
  0
CLASS
  1
LAYOUT
  2
AcDbLayout
  3
AutoCAD 2000
 90
        0
280
     0
281
     0
  0
CLASS
  1
DICTIONARYVAR
  2
AcDbDictionaryVar
  3
AutoCAD 2000
 90
        0
280
     0
281
     0
  0
CLASS
  1
LONG_TRANSACTION
  2
AcDbLongTransaction
  3
AutoCAD 2000
 90
        0
280
     0
281
     0
  0
CLASS
  1
LWPOLYLINE
  2
AcDbPolyline
  3
AutoCAD 2000
 90
        0
280
     0
281
     1
  0
CLASS
  1
HATCH
  2
AcDbHatch
  3
AutoCAD 2000
 90
        0
280
     0
281
     1
  0
CLASS
  1
XRECORD
  2
AcDbXrecord
  3
AutoCAD 2000
 90
        0
280
     0
281
     0
  0
CLASS
  1
LONG_TRANSACTION
  2
AcDbLongTransaction
  3
AutoCAD 2000
 90
        0
280
     0
281
     0
  0
CLASS
  1
LWPOLYLINE
  2
AcDbPolyline
  3
AutoCAD 2000
 90
        0
280
     0
281
     1
  0
CLASS
  1
HATCH
  2
AcDbHatch
  3
AutoCAD 2000
 90
        0
280
     0
281
     1
  0
CLASS
  1
XRECORD
  2
AcDbXrecord
  3
AutoCAD 2000
 90
        0
280
     0
281
     0
  0
ENDSEC
  0
SECTION
  2
TABLES
  0
TABLE
  2
VPORT
  5
8
330
0
100
AcDbSymbolTable
 70
     2
  0
VPORT
  5
19B
330
8
100
AcDbSymbolTableRecord
100
AcDbViewportTableRecord
  2
*ACTIVE
 70
     0
 10
0.0
 20
0.0
 11
1.0
 21
1.0
 12
9.614568391913284
 22
9.658058214418193
 13
0.0
 23
0.0
 14
10.0
 24
10.0
 15
10.0
 25
10.0
 16
0.0
 26
0.0
 36
1.0
 17
0.0
 27
0.0
 37
0.0
 40
16.55040534483679
 41
1.674961119751166
 42
50.0
 43
0.0
 44
0.0
 50
0.0
 51
0.0
 71
     0
 72
  2000
 73
     1
 74
     3
 75
     0
 76
     0
 77
     0
 78
     0
  0
ENDTAB
  0
TABLE
  2
LTYPE
  5
5
330
0
100
AcDbSymbolTable
 70
     1
  0
LTYPE
  5
14
330
5
100
AcDbSymbolTableRecord
100
AcDbLinetypeTableRecord
  2
BYBLOCK
 70
     0
  3

 72
    65
 73
     0
 40
0.0
  0
LTYPE
  5
15
330
5
100
AcDbSymbolTableRecord
100
AcDbLinetypeTableRecord
  2
BYLAYER
 70
     0
  3

 72
    65
 73
     0
 40
0.0
  0
LTYPE
  5
16
330
5
100
AcDbSymbolTableRecord
100
AcDbLinetypeTableRecord
  2
CONTINUOUS
 70
     0
  3
Solid line
 72
    65
 73
     0
 40
0.0
  0
ENDTAB
  0
TABLE
  2
LAYER
  5
2
330
0
100
AcDbSymbolTable
 70
     1
  0
LAYER
  5
10
330
2
100
AcDbSymbolTableRecord
100
AcDbLayerTableRecord
  2
0
 70
     0
 62
     7
  6
CONTINUOUS
  0
ENDTAB
  0
TABLE
  2
STYLE
  5
3
330
0
100
AcDbSymbolTable
 70
     1
  0
STYLE
  5
11
330
3
100
AcDbSymbolTableRecord
100
AcDbTextStyleTableRecord
  2
STANDARD
 70
     0
 40
0.0
 41
1.0
 50
0.0
 71
     0
 42
2.5
  3
ARIAL.TTF
  4

1001
ACAD
1000
Arial
1071
       34
  0
ENDTAB
  0
TABLE
  2
VIEW
  5
6
330
0
100
AcDbSymbolTable
 70
     0
  0
ENDTAB
  0
TABLE
  2
UCS
  5
7
330
0
100
AcDbSymbolTable
 70
     0
  0
ENDTAB
  0
TABLE
  2
APPID
  5
9
330
0
100
AcDbSymbolTable
 70
     1
  0
APPID
  5
12
330
9
100
AcDbSymbolTableRecord
100
AcDbRegAppTableRecord
  2
ACAD
 70
     0
  0
ENDTAB
  0
TABLE
  2
DIMSTYLE
  5
A
330
0
100
AcDbSymbolTable
 70
     1
  0
DIMSTYLE
105
27
330
A
100
AcDbSymbolTableRecord
100
AcDbDimStyleTableRecord
  2
ISO-25
 70
     0
  3

  4

  5

  6

  7

 40
1.0
 41
2.5
 42
0.625
 43
3.75
 44
1.25
 45
0.0
 46
0.0
 47
0.0
 48
0.0
140
2.5
141
2.5
142
0.0
143
0.03937007874016
144
1.0
145
0.0
146
1.0
147
0.625
 71
     0
 72
     0
 73
     0
 74
     0
 75
     0
 76
     0
 77
     1
 78
     8
170
     0
171
     3
172
     1
173
     0
174
     0
175
     0
176
     0
177
     0
178
     0
270
     2
271
     2
272
     2
273
     2
274
     3
340
11
275
     0
280
     0
281
     0
282
     0
283
     0
284
     8
285
     0
286
     0
287
     3
288
     0
  0
ENDTAB
  0
TABLE
  2
BLOCK_RECORD
  5
1
330
0
100
AcDbSymbolTable
 70
     1
  0
BLOCK_RECORD
  5
1F
102
{ACAD_XDICTIONARY
360
15E
102
}
330
1
100
AcDbSymbolTableRecord
100
AcDbBlockTableRecord
  2
*MODEL_SPACE
  0
BLOCK_RECORD
  5
1B
102
{ACAD_XDICTIONARY
360
160
102
}
330
1
100
AcDbSymbolTableRecord
100
AcDbBlockTableRecord
  2
*PAPER_SPACE
  0
ENDTAB
  0
ENDSEC
  0
SECTION
  2
BLOCKS
  0
BLOCK
  5
20
330
1F
100
AcDbEntity
  8
0
100
AcDbBlockBegin
  2
*MODEL_SPACE
 70
     0
 10
0.0
 20
0.0
 30
0.0
  3
*MODEL_SPACE
  1

  0
ENDBLK
  5
21
330
1F
100
AcDbEntity
  8
0
100
AcDbBlockEnd
  0
BLOCK
  5
1C
330
1B
100
AcDbEntity
 67
     1
  8
0
100
AcDbBlockBegin
  2
*PAPER_SPACE
 70
     0
 10
0.0
 20
0.0
 30
0.0
  3
*PAPER_SPACE
  1

  0
ENDBLK
  5
1D
330
1B
100
AcDbEntity
 67
     1
  8
0
100
AcDbBlockEnd
  0
ENDSEC
  0
SECTION
  2
ENTITIES
  0
LWPOLYLINE
  5
9E
330
1F
100
AcDbEntity
  8
0
  6
CONTINUOUS
 62
     7
100
AcDbPolyline
 90
       38
 70
   128
 43
0.0
 10
15.56225614938226
 20
12.53929771538744
 10
15.55327028354962
 20
12.64613452300644
 10
15.53970596504821
 20
12.75362458199318
 10
15.52165524110697
 20
12.86050180234345
 10
15.49916469015642
 20
12.96648595670518
 10
15.47178117896581
 20
13.07312742552164
 10
15.43987870915559
 20
13.17855819523107
 10
15.40354484000056
 20
13.28249310377576
 10
15.3623516665068
 20
13.38591384440031
 10
15.31850748875928
 20
13.48377543640225
 10
15.27013016820081
 20
13.58073525423239
 10
15.21772864747597
 20
13.6756353132539
 10
15.1614424525822
 20
13.76822946802852
 10
15.1003402427789
 20
13.85982534837191
 10
15.03538997825428
 20
13.9487956707
 10
14.96676991312858
 20
14.03490461615331
 10
14.89376070921892
 20
14.11893394485255
 10
14.83323801944052
 20
14.18343041132188
 10
14.77054944620818
 20
14.24585984270484
 10
14.70580494737007
 20
14.30611730546766
 10
14.62132260565977
 20
14.37891894041692
 10
14.53378283064974
 20
14.44809547041059
 10
14.44342692056155
 20
14.51346464833158
 10
14.30405943088086
 20
14.60818005745256
 10
14.16344307193504
 20
14.70105046378177
 10
14.02202823174763
 20
14.79269847213476
 10
13.7733709172754
 20
14.95007039797011
 10
13.52224001677408
 20
15.10346336386153
 10
13.26346901029973
 20
15.25586140936079
 10
13.00225636860667
 20
15.40403447779183
 10
12.79307054281866
 20
15.51869499257767
 10
12.58242138410437
 20
15.63064370737482
 10
12.37005877498847
 20
15.74000670622265
 10
12.15629944434406
 20
15.84661305520574
 10
11.94103335427545
 20
15.95051156791178
 10
11.72443950719913
 20
16.05161206102252
 10
11.50626022913584
 20
16.15002773583919
 10
11.2868220999382
 20
16.24560254796239
  0
LWPOLYLINE
  5
9F
330
1F
100
AcDbEntity
  8
0
  6
CONTINUOUS
 62
     7
100
AcDbPolyline
 90
       51
 70
   128
 43
0.0
 10
11.1926941671099
 20
16.02590075309465
 10
11.42862019959678
 20
15.92295334822376
 10
11.66308715344714
 20
15.81672697419018
 10
11.89622795432525
 20
15.70714814971356
 10
12.12780806931059
 20
15.59431086161075
 10
12.33768958233511
 20
15.48834327284275
 10
12.54635137821976
 20
15.37998743162186
 10
12.6153662604486
 20
15.34270800120467
 10
12.68335691168595
 20
15.30359714922792
 10
12.780488529703
 20
15.24304626407216
 10
12.87503446612781
 20
15.17853190983877
 10
12.96745528685835
 20
15.10967078956785
 10
13.05692566294125
 20
15.03701693389601
 10
13.11609559111714
 20
14.98541893923627
 10
13.17378586478306
 20
14.93214809864723
 10
13.22992628510403
 20
14.877268919582
 10
13.28487744380399
 20
14.82038925572823
 10
13.33818503314824
 20
14.76194421427121
 10
13.38978286536972
 20
14.70200573707387
 10
13.46130297467654
 20
14.61276304588033
 10
13.52905387939636
 20
14.52062602376007
 10
13.59334682042975
 20
14.4250763363781
 10
13.65358086733736
 20
14.32691729446001
 10
13.69223496998998
 20
14.25863449897443
 10
13.72893039298152
 20
14.18926126632493
 10
13.76361991077543
 20
14.11888145758083
 10
13.7965165695248
 20
14.04700177540458
 10
13.82733549943889
 20
13.97418921315615
 10
13.85603562711321
 20
13.90053343879537
 10
13.89357493261181
 20
13.7931684630727
 10
13.92662663585005
 20
13.68433834133524
 10
13.95531015069291
 20
13.57345536894164
 10
13.97933232443669
 20
13.46147015816584
 10
13.99300125685104
 20
13.38465056877996
 10
14.0044768516079
 20
13.30745683547636
 10
14.01374528083797
 20
13.2299831456437
 10
14.02084174137317
 20
13.15169905764252
 10
14.02568634747141
 20
13.07322717474272
 10
14.02827423830572
 20
12.99466480250165
 10
14.02858792125521
 20
12.91483898056101
 10
14.02657055278574
 20
12.8350210652105
 10
14.02222618764483
 20
12.7553130609349
 10
14.01441378145605
 20
12.6644579056778
 10
14.00356901121738
 20
12.57386360574693
 10
13.98971308204563
 20
12.4836808567868
 10
13.97286719905759
 20
12.39406035444195
 10
13.9549966135773
 20
12.31325587140327
 10
13.93468636225547
 20
12.23301044975798
 10
13.91196423636429
 20
12.1534342240417
 10
13.8932468880325
 20
12.09391283745397
 10
13.87317779042216
 20
12.03483362838705
  0
ARC
  5
A0
330
1F
100
AcDbEntity
  8
0
  6
CONTINUOUS
 62
     7
100
AcDbCircle
 10
13.32389243001795
 20
12.23087840816448
 30
0.0
 40
2.583712679065437
100
AcDbArc
 50
340.6761207622667
 51
8.99043316403412
  0
LWPOLYLINE
  5
A1
330
1F
100
AcDbEntity
  8
0
  6
CONTINUOUS
 62
     7
100
AcDbPolyline
 90
       38
 70
   128
 43
0.0
 10
3.940485816534067
 20
15.49982020212916
 10
3.971013513604608
 20
15.58082146363066
 10
4.005644420260532
 20
15.66033484754352
 10
4.044232796629833
 20
15.73806689015226
 10
4.0866329028405
 20
15.81372412774145
 10
4.132698999020529
 20
15.88701309659561
 10
4.174958022337939
 20
15.94773564545442
 10
4.219783510926955
 20
16.00658923423887
 10
4.275401455822608
 20
16.07292188522114
 10
4.334398223841251
 20
16.13649257097442
 10
4.396539078465769
 20
16.19707288488497
 10
4.461589283179064
 20
16.25443442033906
 10
4.529314101464017
 20
16.30834877072296
 10
4.589287004816142
 20
16.35166365499323
 10
4.651061910892071
 20
16.39236732699916
 10
4.720475880669251
 20
16.43375940291872
 10
4.791751881289632
 20
16.47185562133252
 10
4.864530203318501
 20
16.50683719521056
 10
4.938197081536401
 20
16.53993939914446
 10
5.064925513456287
 20
16.59382113786785
 10
5.193128008709056
 20
16.6441677891164
 10
5.322656138692753
 20
16.6909199664537
 10
5.440848452907154
 20
16.73006659311325
 10
5.559990091600514
 20
16.76622115688348
 10
5.690357539025207
 20
16.80207351162853
 10
5.821654964486057
 20
16.83435411664536
 10
5.93984641391172
 20
16.86018479845913
 10
6.058652716179164
 20
16.88311713642166
 10
6.177966869934524
 20
16.90313126563022
 10
6.268063321918653
 20
16.91626490464325
 10
6.358385935904754
 20
16.92774035242115
 10
6.448291778820964
 20
16.93749255980369
 10
6.538360857354234
 20
16.94559942372547
 10
6.66172165561468
 20
16.95400947105084
 10
6.785273688902124
 20
16.95933024450016
 10
6.9089007959425
 20
16.96156281603265
 10
7.051369300385797
 20
16.96030727659673
 10
7.193742397464989
 20
16.95494871775012
  0
LWPOLYLINE
  5
A2
330
1F
100
AcDbEntity
  8
0
  6
CONTINUOUS
 62
     7
100
AcDbPolyline
 90
       41
 70
   128
 43
0.0
 10
7.20881556582894
 20
17.24625490850651
 10
7.064650099378306
 20
17.25176283083784
 10
6.944075925810608
 20
17.25331373180338
 10
6.823481789996765
 20
17.25208520373457
 10
6.702963883761038
 20
17.24807800729287
 10
6.582407850940311
 20
17.24128166639939
 10
6.462024575605461
 20
17.23170476165865
 10
6.341910243051163
 20
17.21935478143447
 10
6.220261372500443
 20
17.20397994339634
 10
6.098989199527791
 20
17.18575848583467
 10
5.978193508493269
 20
17.16470533765936
 10
5.855324124483519
 20
17.14027948164526
 10
5.733056378480506
 20
17.11291900367244
 10
5.611495111129613
 20
17.08264748829225
 10
5.464737596394446
 20
17.04194446505067
 10
5.340499131385147
 20
17.00385386297149
 10
5.21720529610013
 20
16.96268213915064
 10
5.094968999540528
 20
16.9184692799846
 10
4.973903150707467
 20
16.87125527186989
 10
4.852984636587157
 20
16.82059522514066
 10
4.733369637538455
 20
16.76692994147618
 10
4.614838690060061
 20
16.71014540330033
 10
4.497766762814251
 20
16.6504109367484
 10
4.428264496202237
 20
16.61317811503287
 10
4.359319295948106
 20
16.57372465425291
 10
4.292063914705657
 20
16.5313931819006
 10
4.226772156722283
 20
16.4861637300287
 10
4.162585622391985
 20
16.43726168980769
 10
4.10062196267699
 20
16.38550862184893
 10
4.041067599961349
 20
16.3310604920093
 10
3.983411060630126
 20
16.27336029922007
 10
3.929771234577856
 20
16.21463546555635
 10
3.878727324133055
 20
16.15353931664967
 10
3.830425462962006
 20
16.09025317465007
 10
3.785011784730997
 20
16.02495836170763
 10
3.741650330730893
 20
15.95623853396308
 10
3.701410864592004
 20
15.88559751164309
 10
3.664416402335008
 20
15.81325086222126
 10
3.630329109999827
 20
15.73837161034764
 10
3.607073550482487
 20
15.68134552866904
 10
3.585781848792898
 20
15.62355750205824
  0
LWPOLYLINE
  5
A3
330
1F
100
AcDbEntity
  8
0
  6
CONTINUOUS
 62
     7
100
AcDbPolyline
 90
       41
 70
   128
 43
0.0
 10
5.584639452483266
 20
12.33954914154739
 10
5.49285339153539
 20
12.40645867711895
 10
5.402617705851332
 20
12.47546973458725
 10
5.3140010708925
 20
12.54652411901925
 10
5.226626041738384
 20
12.61994836278078
 10
5.140957579235614
 20
12.69537991659953
 10
5.057067268343779
 20
12.77276179325614
 10
4.973787521987135
 20
12.85325193824381
 10
4.892403514033652
 20
12.93568091124079
 10
4.81298083621349
 20
13.01997974213457
 10
4.735174748437984
 20
13.10655032679188
 10
4.659419971190498
 20
13.19494302363533
 10
4.585779895728601
 20
13.28508438178253
 10
4.51117066673793
 20
13.38103742598766
 10
4.438939409174059
 20
13.47879332413566
 10
4.368965325338539
 20
13.57853799928012
 10
4.301473855051805
 20
13.67997915651862
 10
4.236037359637785
 20
13.78382464874196
 10
4.173198029240912
 20
13.8892623231716
 10
4.112846427918945
 20
13.99649209617177
 10
4.055180386620072
 20
14.1051898992932
 10
4.02156434943263
 20
14.17190637390709
 10
3.990035519967806
 20
14.2396169260211
 10
3.961368146067831
 20
14.30903411496765
 10
3.93574528306425
 20
14.37963230197385
 10
3.912793731459691
 20
14.45274042762765
 10
3.893107861691955
 20
14.52679517962441
 10
3.876612097558421
 20
14.60225279377481
 10
3.863507639402595
 20
14.67837309063164
 10
3.854082518829368
 20
14.75253644079826
 10
3.847877006915856
 20
14.8270387050259
 10
3.844889467498965
 20
14.90317455252034
 10
3.845267841913999
 20
14.97944304255693
 10
3.84900590258892
 20
15.05562127754806
 10
3.856097421951702
 20
15.13148635990612
 10
3.866792732565528
 20
15.20850982783479
 10
3.88094882497441
 20
15.28497344688063
 10
3.893190171147498
 20
15.33926567436051
 10
3.907178236136507
 20
15.39313451452267
 10
3.922967547861107
 20
15.44674717467604
 10
3.940485816534067
 20
15.49982020212916
  0
LWPOLYLINE
  5
A4
330
1F
100
AcDbEntity
  8
0
  6
CONTINUOUS
 62
     7
100
AcDbPolyline
 90
       41
 70
   128
 43
0.0
 10
3.585781848792901
 20
15.62355750205824
 10
3.562607688469526
 20
15.55246115001279
 10
3.54240580074634
 20
15.48046377961532
 10
3.525003722682832
 20
15.40667817026716
 10
3.510713495859519
 20
15.33215854391858
 10
3.499568281128809
 20
15.25710401865084
 10
3.491601239343101
 20
15.1817137125452
 10
3.48677831542982
 20
15.10491973998415
 10
3.485242750853196
 20
15.02798970119743
 10
3.486905631375627
 20
14.95322964512601
 10
3.491673735707902
 20
14.87860320306169
 10
3.499676676569379
 20
14.80321496223576
 10
3.51086003162846
 20
14.72816423040892
 10
3.525189934390933
 20
14.65365025809764
 10
3.542632518362591
 20
14.57987229581843
 10
3.56350671382339
 20
14.50580986630042
 10
3.58752875781484
 20
14.43270786417533
 10
3.611903022662595
 20
14.36754971660528
 10
3.638364321630175
 20
14.30318162599545
 10
3.666311591892908
 20
14.23941574947349
 10
3.695143770626108
 20
14.1760642441671
 10
3.748250907270293
 20
14.06411757035675
 10
3.803997234332459
 20
13.95344206558871
 10
3.86233607649032
 20
13.84413055861986
 10
3.915534016658682
 20
13.74956269064383
 10
3.970678815041734
 20
13.6561167155723
 10
4.03852101583673
 20
13.54688737196964
 10
4.109056122568805
 20
13.43930782511854
 10
4.182218126120282
 20
13.3334736379939
 10
4.257941017373504
 20
13.22948037357059
 10
4.3361587872108
 20
13.12742359482351
 10
4.433178998908369
 20
13.00767936609507
 10
4.533700491312457
 20
12.8908148519639
 10
4.637592859822158
 20
12.77698179619933
 10
4.734449961368429
 20
12.67665522365327
 10
4.8339420592101
 20
12.57894118591037
 10
4.936895234095674
 20
12.4831006036692
 10
5.042384094735309
 20
12.39005829390425
 10
5.163127562394077
 20
12.28951794128421
 10
5.286859644855043
 20
12.19262203918168
 10
5.413413451969784
 20
12.09950158677174
  0
LWPOLYLINE
  5
A5
330
1F
100
AcDbEntity
  8
0
  6
CONTINUOUS
 62
     7
100
AcDbPolyline
 90
       50
 70
   128
 43
0.0
 10
13.87317779042216
 20
12.03483362838705
 10
13.8332458862313
 20
11.92861923011032
 10
13.78894979537063
 20
11.8241499107845
 10
13.74001097954188
 20
11.72090046764169
 10
13.68681307939727
 20
11.61977994680096
 10
13.64818666074846
 20
11.55221566993268
 10
13.60765126908354
 20
11.48576097301998
 10
13.56525696870536
 20
11.42049534662198
 10
13.52069708623949
 20
11.35599435384854
 10
13.47430507686649
 20
11.29277868644201
 10
13.42613916036679
 20
11.23092441876239
 10
13.35326560147827
 20
11.14380077085794
 10
13.27685890052677
 20
11.05975897480979
 10
13.1964864320296
 20
10.9783972055139
 10
13.11280730645466
 20
10.90044083743335
 10
13.05400399728795
 20
10.84937242473439
 10
12.99377004583566
 20
10.79997532118269
 10
12.93217926210219
 20
10.75230636459399
 10
12.86880645093193
 20
10.70606836920245
 10
12.80413336877813
 20
10.66163968120374
 10
12.73823948007251
 20
10.619072125895
 10
12.64023409196694
 20
10.56049536023695
 10
12.53989734611226
 20
10.50600936165646
 10
12.43668826081882
 20
10.45537416858952
 10
12.33146995367527
 20
10.40905976718277
 10
12.25876495415343
 20
10.38003668227586
 10
12.18525679122353
 20
10.35306813428167
 10
12.11103284491388
 20
10.32818677340504
 10
12.03559360995422
 20
10.30525011717941
 10
11.95951991693242
 20
10.28445542351095
 10
11.88290321694146
 20
10.26582834479147
 10
11.77034215702573
 20
10.24257973250051
 10
11.65691904328403
 20
10.22399038292806
 10
11.54203996431887
 20
10.21001365095303
 10
11.42668090990058
 20
10.20080907672003
 10
11.34795485125206
 20
10.19728233671827
 10
11.26914521407168
 20
10.19597595200186
 10
11.19034594540142
 20
10.1968906936334
 10
11.11103452496114
 20
10.20005778282444
 10
11.03182908553987
 20
10.20547370208329
 10
10.95282510043191
 20
10.21313107685714
 10
10.84797791102509
 20
10.22681843673878
 10
10.74371498548014
 20
10.24441628207898
 10
10.53540732517648
 20
10.28509118067711
 10
10.32764418204421
 20
10.32851837180655
 10
10.12039502976543
 20
10.37431433404645
 10
9.912751579493907
 20
10.42255580268208
 10
9.705666467405585
 20
10.47314628380326
 10
9.49905681151586
 20
10.52609011738841
 10
9.293049290310911
 20
10.5813391422545
  0
LWPOLYLINE
  5
A6
330
1F
100
AcDbEntity
  8
0
  6
CONTINUOUS
 62
     7
100
AcDbPolyline
 90
       51
 70
   128
 43
0.0
 10
9.215156218022663
 20
10.29602956101668
 10
9.463983116298711
 20
10.22982815400176
 10
9.713667800834299
 20
10.16685088055969
 10
9.964147283180281
 20
10.10711332195025
 10
10.2153585748875
 20
10.05063105943323
 10
10.46796182686559
 20
9.99727018626886
 10
10.72125807116558
 20
9.947190445412831
 10
10.97518304102113
 20
9.900403657113406
 10
11.22967246966591
 20
9.85692164161885
 10
11.46163473443097
 20
9.820242404554157
 10
11.69402166875605
 20
9.786302187440622
 10
11.92678455552187
 20
9.755106948930091
 10
12.10172848353767
 20
9.733497200185794
 10
12.27685681519208
 20
9.713437522362017
 10
12.45188074331413
 20
9.694956869052949
 10
12.6270609946599
 20
9.678023026691267
 10
12.80349542665536
 20
9.662544169556881
 10
12.98006033611376
 20
9.6486336353714
 10
13.06850722209106
 20
9.642190013611475
 10
13.1570351739414
 20
9.636645832576485
 10
13.24562301763241
 20
9.632972925925434
 10
13.33424957913178
 20
9.632143127317323
 10
13.44222835847389
 20
9.635514761994325
 10
13.55006709962862
 20
9.643383906267029
 10
13.65748547404146
 20
9.655727678085852
 10
13.76420315315787
 20
9.672523195401209
 10
13.87320740673511
 20
9.694459137186839
 10
13.98126976278841
 20
9.721075930640585
 10
14.08809380534042
 20
9.752293551768952
 10
14.19338311841381
 20
9.788031976578439
 10
14.29411543348293
 20
9.827064345388818
 10
14.39322219410422
 20
9.870291948033761
 10
14.49044991987132
 20
9.917595109898352
 10
14.58554513037789
 20
9.968854156367662
 10
14.68108321567846
 20
10.02569223994536
 10
14.77419376704275
 20
10.08661097004614
 10
14.86462803571171
 20
10.15143665315987
 10
14.95213727292633
 20
10.21999559577645
 10
15.03432981798741
 20
10.29017703910573
 10
15.11361677396999
 20
10.36376154879224
 10
15.18979900865832
 20
10.44055591156755
 10
15.26267738983663
 20
10.52036691416323
 10
15.33412988748957
 20
10.60555870057659
 10
15.40195585164372
 20
10.69379235861976
 10
15.46597391339607
 20
10.7848261996955
 10
15.52600270384361
 20
10.87841853520657
 10
15.58150057233288
 20
10.97365629119003
 10
15.63298589587011
 20
11.07128978543575
 10
15.68032669475171
 20
11.17105334357464
 10
15.72339098927411
 20
11.27268129123758
 10
15.76204679973373
 20
11.37590795405546
  0
ARC
  5
A7
330
1F
100
AcDbEntity
  8
0
  6
CONTINUOUS
 62
     7
100
AcDbCircle
 10
10.94863144052642
 20
36.87891272623361
 30
0.0
 40
19.97085467770365
100
AcDbArc
 50
262.160305631429
 51
278.7103457155047
  0
ARC
  5
A8
330
1F
100
AcDbEntity
  8
0
  6
CONTINUOUS
 62
     7
100
AcDbCircle
 10
10.91328313233212
 20
36.90717977818133
 30
0.0
 40
19.93949648047554
100
AcDbArc
 50
262.2036015548848
 51
278.6793739875648
  0
ARC
  5
A9
330
1F
100
AcDbEntity
  8
0
  6
CONTINUOUS
 62
     7
100
AcDbCircle
 10
12.40264292036125
 20
21.93255324306055
 30
0.0
 40
11.76943643962564
100
AcDbArc
 50
234.5988620946426
 51
254.6800301320701
  0
ARC
  5
AA
330
1F
100
AcDbEntity
  8
0
  6
CONTINUOUS
 62
     7
100
AcDbCircle
 10
12.37230613150524
 20
21.8601730198566
 30
0.0
 40
11.9873687485133
100
AcDbArc
 50
234.5129608733918
 51
254.729698226179
  0
LWPOLYLINE
  5
AB
330
1F
100
AcDbEntity
  8
0
  6
CONTINUOUS
 62
     7
100
AcDbPolyline
 90
       75
 70
   128
 43
0.0
 10
7.634391158200706
 20
10.88747693139386
 10
7.635767338679594
 20
10.88847498550808
 10
7.638780087920276
 20
10.88875599458805
 10
7.643573373460032
 20
10.88829296654092
 10
7.65004375183501
 20
10.88707517048752
 10
7.657899836339231
 20
10.88517700065179
 10
7.667243220967753
 20
10.8825931265834
 10
7.678349588415457
 20
10.87923836237578
 10
7.690884731396614
 20
10.87520900666923
 10
7.704356419216912
 20
10.87067647844568
 10
7.719002205224249
 20
10.86557446938986
 10
7.735198814278803
 20
10.85976951132208
 10
7.752417404755171
 20
10.85345065485153
 10
7.770016136050751
 20
10.84686380356446
 10
7.788343549203711
 20
10.83988861461069
 10
7.807835132784564
 20
10.83235832834125
 10
7.827824898810419
 20
10.82452950141566
 10
7.847587568771876
 20
10.8166930414432
 10
7.867548030133839
 20
10.80868665624384
 10
7.888150931354186
 20
10.80032887988536
 10
7.908667426615627
 20
10.79191172080495
 10
7.928374970430699
 20
10.7837346538332
 10
7.947722765239475
 20
10.775613897768
 10
7.967114086704484
 20
10.76737324356116
 10
7.985839676153089
 20
10.75930648822457
 10
8.003266319796214
 20
10.75168685653047
 10
8.019812091042584
 20
10.74433249949371
 10
8.035793508394561
 20
10.73709165925872
 10
8.050601290100647
 20
10.73022911244859
 10
8.063760221852195
 20
10.72396591983517
 10
8.075613831988425
 20
10.71814158305728
 10
8.086356206061372
 20
10.71264555587273
 10
8.095547818166888
 20
10.70768785426491
 10
8.102923140230139
 20
10.70341839306526
 10
8.108716720067029
 20
10.69971398860215
 10
8.112978181617977
 20
10.69651797006542
 10
8.115489243640102
 20
10.69396571880369
 10
8.116228238673567
 20
10.69212118394167
 10
8.115291592711402
 20
10.69091282187823
 10
8.112579115058908
 20
10.69034469110071
 10
8.108119545185331
 20
10.690464353996
 10
8.102138401110053
 20
10.6912426211073
 10
8.09458124688024
 20
10.69266815179108
 10
8.085209801954695
 20
10.69480578657511
 10
8.074296049801024
 20
10.69760957881938
 10
8.062282912279524
 20
10.70095979342442
 10
8.048974064045854
 20
10.70490510003658
 10
8.034019967859965
 20
10.70956433907943
 10
8.017904023953125
 20
10.71480037504981
 10
8.001237147278539
 20
10.72041230071321
 10
7.983702127976796
 20
10.72650312341644
 10
7.964877363203857
 20
10.73323254744327
 10
7.945402016588126
 20
10.74038344282457
 10
7.925989946688609
 20
10.74769033931959
 10
7.906233938484204
 20
10.75530100239226
 10
7.885688008964699
 20
10.76339767362528
 10
7.865073456752279
 20
10.77170424192028
 10
7.845123051710711
 20
10.77991887425406
 10
7.825387527709924
 20
10.78821756547768
 10
7.805446898853332
 20
10.79678388903062
 10
7.786022098181469
 20
10.80531277373062
 10
7.767775904469718
 20
10.81350295054833
 10
7.750274188569832
 20
10.82153680217962
 10
7.733169872647481
 20
10.82957803070173
 10
7.717102956520957
 20
10.83732831323619
 10
7.702594237646749
 20
10.84452317634312
 10
7.689272816424622
 20
10.85133134943576
 10
7.676903252747008
 20
10.85787794218073
 10
7.665974496437289
 20
10.863908194181
 10
7.656813309078641
 20
10.86922581206288
 10
7.649148409628034
 20
10.87396940304245
 10
7.642882679129668
 20
10.87821130628321
 10
7.638300447491657
 20
10.88177314443182
 10
7.63503199316252
 20
10.88516915415658
 10
7.634391158200706
 20
10.88747693139386
  0
LWPOLYLINE
  5
AC
330
1F
100
AcDbEntity
  8
0
  6
CONTINUOUS
 62
     7
100
AcDbPolyline
 90
       17
 70
   128
 43
0.0
 10
15.81323381547702
 20
15.4326217422879
 10
15.77163805611502
 20
15.24526868527384
 10
15.73352640549107
 20
15.05712578329443
 10
15.6988899747434
 20
14.86829370065591
 10
15.66771987501025
 20
14.6788731016645
 10
15.64000721742988
 20
14.48896465062645
 10
15.61944231352668
 20
14.3294814369725
 10
15.60131137977536
 20
14.16969337690475
 10
15.58563190296956
 20
14.00965522971535
 10
15.57254834894168
 20
13.85108698505643
 10
15.56191250494013
 20
13.6923259607593
 10
15.55376065305391
 20
13.53342744263015
 10
15.54711727738788
 20
13.3346557806978
 10
15.54451480874629
 20
13.1357202906982
 10
15.54608357757056
 20
12.93675765894049
 10
15.55195391430208
 20
12.73790457173385
 10
15.56225614938226
 20
12.53929771538744
  0
LWPOLYLINE
  5
AD
330
1F
100
AcDbEntity
  8
0
  6
CONTINUOUS
 62
     7
100
AcDbPolyline
 90
       17
 70
   128
 43
0.0
 10
15.89451643751023
 20
15.51237832029207
 10
15.8631659508033
 20
15.30709665082205
 10
15.83643751500966
 20
15.10110953230308
 10
15.81431269442191
 20
14.89457541922488
 10
15.79677305333263
 20
14.68765276607716
 10
15.78429382984219
 20
14.48988622992705
 10
15.77598025510704
 20
14.29187828034785
 10
15.77184994315022
 20
14.09376050097626
 10
15.77195510981435
 20
13.89294745690764
 10
15.77642897359955
 20
13.69216030355377
 10
15.78532913336691
 20
13.49154520287475
 10
15.79515562033691
 20
13.33840637363609
 10
15.80765001813019
 20
13.18543807965373
 10
15.8228556814401
 20
13.03271723182386
 10
15.84081596495998
 20
12.88032074104267
 10
15.85740501608893
 20
12.7572373085509
 10
15.87586277035152
 20
12.63442068670102
  0
LINE
  5
AE
330
1F
100
AcDbEntity
  8
0
  6
CONTINUOUS
 62
     7
100
AcDbLine
 10
14.18995275190112
 20
17.23683877898984
 30
0.0
 11
13.92225206573092
 21
17.19602491975824
 31
0.0
  0
ARC
  5
AF
330
1F
100
AcDbEntity
  8
0
  6
CONTINUOUS
 62
     7
100
AcDbCircle
 10
14.41537989537126
 20
15.75498474826756
 30
0.0
 40
1.498902520306435
100
AcDbArc
 50
350.6848789857349
 51
98.64980643189575
  0
ARC
  5
B0
330
1F
100
AcDbEntity
  8
0
  6
CONTINUOUS
 62
     7
100
AcDbCircle
 10
6.586743912673405
 20
5.296788194737909
 30
0.0
 40
11.96564827554698
100
AcDbArc
 50
82.21084517140026
 51
87.01995626296708
  0
LINE
  5
B1
330
1F
100
AcDbEntity
  8
0
  6
CONTINUOUS
 62
     7
100
AcDbLine
 10
13.40502650073594
 20
9.018866087574648
 30
0.0
 11
16.61508714238152
 21
8.854612575676759
 31
0.0
  0
LINE
  5
B2
330
1F
100
AcDbEntity
  8
0
  6
CONTINUOUS
 62
     7
100
AcDbLine
 10
16.61508714238152
 20
8.854612575676759
 30
0.0
 11
16.61508714238152
 21
17.85461257567676
 31
0.0
  0
LINE
  5
B3
330
1F
100
AcDbEntity
  8
0
  6
CONTINUOUS
 62
     7
100
AcDbLine
 10
16.61508714238152
 20
17.85461257567676
 30
0.0
 11
2.615087142427402
 21
17.85461257554839
 31
0.0
  0
LINE
  5
B4
330
1F
100
AcDbEntity
  8
0
  6
CONTINUOUS
 62
     7
100
AcDbLine
 10
2.615087142381522
 20
17.85461257542002
 30
0.0
 11
2.615087142381533
 21
16.36503724034082
 31
0.0
  0
ARC
  5
B5
330
1F
100
AcDbEntity
  8
0
  6
CONTINUOUS
 62
     7
100
AcDbCircle
 10
14.45184361960246
 20
29.47715884154075
 30
0.0
 40
20.48505720000152
100
AcDbArc
 50
254.729673294722
 51
267.0708240101507
  0
ARC
  5
B6
330
1F
100
AcDbEntity
  8
0
  6
CONTINUOUS
 62
     7
100
AcDbCircle
 10
8.455993430379166
 20
16.36500869484331
 30
0.0
 40
5.840906288067375
100
AcDbArc
 50
180.0
 51
234.4998657090459
  0
ARC
  5
B7
330
1F
100
AcDbEntity
  8
0
  6
CONTINUOUS
 62
     7
100
AcDbCircle
 10
12.37026989703591
 20
21.85260949734242
 30
0.0
 40
12.5814692891997
100
AcDbArc
 50
234.4998727190762
 51
254.7295709574554
  0
LINE
  5
B8
330
1F
100
AcDbEntity
  8
0
  6
CONTINUOUS
 62
     7
100
AcDbLine
 10
14.19961219895204
 20
17.17324349486712
 30
0.0
 11
13.97300383226452
 21
17.13849701785216
 31
0.0
  0
ARC
  5
B9
330
1F
100
AcDbEntity
  8
0
  6
CONTINUOUS
 62
     7
100
AcDbCircle
 10
6.601016639891062
 20
5.293048440667623
 30
0.0
 40
11.91281795221841
100
AcDbArc
 50
66.8374234261332
 51
82.16700347844241
  0
ELLIPSE
  5
BA
330
1F
100
AcDbEntity
  8
0
  6
CONTINUOUS
 62
     7
100
AcDbEllipse
 10
14.41686067628098
 20
15.75638610957622
 30
0.0
 11
-1.013579261618498
 21
-1.013579261540495
 31
0.0
210
0.0
220
0.0
230
-1.0
 40
0.9999984691455791
 41
2.204047494193855
 42
4.154826600026829
  0
ARC
  5
BB
330
1F
100
AcDbEntity
  8
0
  6
CONTINUOUS
 62
     7
100
AcDbCircle
 10
6.584322419110927
 20
5.260842320900267
 30
0.0
 40
11.7099775070798
100
AcDbArc
 50
66.82490656618394
 51
87.01681972842091
  0
ARC
  5
BC
330
1F
100
AcDbEntity
  8
0
  6
CONTINUOUS
 62
     7
100
AcDbCircle
 10
5.943475955589073
 20
6.035053135003638
 30
0.0
 40
5.116846036580883
100
AcDbArc
 50
66.35780009962466
 51
69.41811860624646
  0
CIRCLE
  5
BD
330
1F
100
AcDbEntity
  8
0
  6
CONTINUOUS
 62
     7
100
AcDbCircle
 10
8.281525867872895
 20
11.95461258711965
 30
0.0
 40
0.5497768510662056
  0
CIRCLE
  5
BE
330
1F
100
AcDbEntity
  8
0
  6
CONTINUOUS
 62
     7
100
AcDbCircle
 10
8.281525900674962
 20
11.95461257567675
 30
0.0
 40
0.2600000000000016
  0
LINE
  5
BF
330
1F
100
AcDbEntity
  8
0
  6
CONTINUOUS
 62
     7
100
AcDbLine
 10
13.86359747463365
 20
1.739945185303125
 30
0.0
 11
8.842465663289711
 21
1.639522549076247
 31
0.0
  0
LINE
  5
C0
330
1F
100
AcDbEntity
  8
0
  6
CONTINUOUS
 62
     7
100
AcDbLine
 10
7.720586072456084
 20
1.639522549076247
 30
0.0
 11
6.108778728410653
 21
1.671758695957155
 31
0.0
  0
LWPOLYLINE
  5
C1
330
1F
100
AcDbEntity
  8
0
  6
CONTINUOUS
 62
     7
100
AcDbPolyline
 90
        5
 70
   128
 43
0.0
 10
15.7943635410319
 20
5.728309752568032
 10
15.22859053184799
 20
4.43806383944945
 10
14.84053079078258
 20
3.552760612112621
 10
14.61378820905456
 20
3.035386760501469
 10
14.04844224463619
 20
1.745133568547282
  0
ARC
  5
C2
330
1F
100
AcDbEntity
  8
0
  6
CONTINUOUS
 62
     7
100
AcDbCircle
 10
8.281525867872895
 20
2.317568672815438
 30
0.0
 40
0.8800000000000007
100
AcDbArc
 50
230.3994351585985
 51
252.8152052166638
  0
ARC
  5
C3
330
1F
100
AcDbEntity
  8
0
  6
CONTINUOUS
 62
     7
100
AcDbCircle
 10
8.281525867872895
 20
2.317568672815438
 30
0.0
 40
0.8800000048457611
100
AcDbArc
 50
287.1847969212667
 51
309.6005645803887
  0
LWPOLYLINE
  5
C4
330
1F
100
AcDbEntity
  8
0
  6
CONTINUOUS
 62
     7
100
AcDbPolyline
 90
        3
 70
   128
 43
0.0
 10
3.816986326462618
 20
1.735576387592252
 10
3.644130921937172
 20
3.80609763726886
 10
3.483352094044331
 20
5.728309752568032
  0
LINE
  5
C5
330
1F
100
AcDbEntity
  8
0
  6
CONTINUOUS
 62
     7
100
AcDbLine
 10
15.91458070527375
 20
5.728309752568032
 30
0.0
 11
15.8777994819546
 21
5.307898446270616
 31
0.0
  0
LWPOLYLINE
  5
C6
330
1F
100
AcDbEntity
  8
0
  6
CONTINUOUS
 62
     7
100
AcDbPolyline
 90
        6
 70
   128
 43
0.0
 10
13.40502650073594
 20
6.078309021030645
 10
13.67253155396041
 20
6.078306389146137
 10
14.47504671451219
 20
6.078309300178418
 10
15.01005682130908
 20
6.078308317319295
 10
16.08007703357541
 20
6.078309541945011
 10
16.61508714238152
 20
6.078313756555461
  0
LINE
  5
C7
330
1F
100
AcDbEntity
  8
0
  6
CONTINUOUS
 62
     7
100
AcDbLine
 10
2.616136314130081
 20
6.078313442479069
 30
0.0
 11
2.615087142427402
 21
6.078313443703498
 31
0.0
  0
LINE
  5
C8
330
1F
100
AcDbEntity
  8
0
  6
CONTINUOUS
 62
     7
100
AcDbLine
 10
2.615087142381522
 20
6.078313443703483
 30
0.0
 11
2.615087142381529
 21
6.078312614067633
 31
0.0
  0
LINE
  5
C9
330
1F
100
AcDbEntity
  8
0
  6
CONTINUOUS
 62
     7
100
AcDbLine
 10
2.615087142381529
 20
6.078311590326084
 30
0.0
 11
2.615087142381533
 21
6.07830991333409
 31
0.0
  0
LWPOLYLINE
  5
CA
330
1F
100
AcDbEntity
  8
0
  6
CONTINUOUS
 62
     7
100
AcDbPolyline
 90
       45
 70
   128
 43
0.0
 10
2.615087142381543
 20
6.078309379492073
 10
2.616323393374816
 20
6.078314166955819
 10
2.62003057803432
 20
6.078311891441718
 10
2.626206343880539
 20
6.078308597152775
 10
2.634887791590596
 20
6.078307969633202
 10
2.646052032577689
 20
6.078308930880211
 10
2.659691927901576
 20
6.078310359205674
 10
2.678507048067235
 20
6.078311166506966
 10
2.700617094806702
 20
6.078310496919925
 10
2.729260998353858
 20
6.078309257390281
 10
2.761987698303236
 20
6.078308591632708
 10
2.79888658528063
 20
6.07830853484836
 10
2.839841781911975
 20
6.078308610548295
 10
2.864134627233866
 20
6.078308637733798
 10
2.889645291624127
 20
6.078308639518636
 10
2.916392195647631
 20
6.078308608010691
 10
2.944347643983316
 20
6.078308549304322
 10
2.987623024222777
 20
6.078308444030536
 10
3.03347607730393
 20
6.078308374669285
 10
3.081979794805203
 20
6.078308401219123
 10
3.133026301034913
 20
6.078308532244775
 10
3.188192202633992
 20
6.078308777422306
 10
3.245998155624036
 20
6.078309190978403
 10
3.306540021317012
 20
6.07830980595808
 10
3.369673020537646
 20
6.078310474341497
 10
3.446433488217014
 20
6.078311009467755
 10
3.526613592924949
 20
6.078310981496974
 10
3.610393601305881
 20
6.078310248178102
 10
3.697499499514298
 20
6.078309135160113
 10
3.794379042146035
 20
6.078308118682672
 10
3.895007521937502
 20
6.07830798378195
 10
3.97238365930527
 20
6.078308692468025
 10
4.05173287616466
 20
6.078309891742395
 10
4.133003026761565
 20
6.078311213481638
 10
4.216502349097536
 20
6.078312138306924
 10
4.30188331111179
 20
6.078312124064813
 10
4.389089356722456
 20
6.078310783481
 10
4.474588815623745
 20
6.078308093529956
 10
4.561712188989226
 20
6.078304710538453
 10
4.65057071531565
 20
6.078301930249317
 10
4.740986461307388
 20
6.078302060502926
 10
4.820095214022458
 20
6.078306646172594
 10
4.900308121664977
 20
6.078314119594714
 10
4.981700606274708
 20
6.078318917966437
 10
5.064150739612223
 20
6.078311792357995
  0
LWPOLYLINE
  5
CB
330
1F
100
AcDbEntity
  8
0
  6
CONTINUOUS
 62
     7
100
AcDbPolyline
 90
       21
 70
   128
 43
0.0
 10
5.064150739612236
 20
6.078311792357995
 10
5.242396702897329
 20
6.078290661969119
 10
5.422816024299738
 20
6.078289318547856
 10
5.605326826495227
 20
6.078298271152734
 10
5.789847232159583
 20
6.078308028842275
 10
5.976295363968576
 20
6.078309100675005
 10
6.186391747755729
 20
6.078305595579467
 10
6.398806392015872
 20
6.078307175048053
 10
6.613420867721021
 20
6.078310460724595
 10
6.809943507635807
 20
6.078312349789238
 10
7.008212724878816
 20
6.078312777355343
 10
7.208136821684577
 20
6.07831208150254
 10
7.409624100287635
 20
6.078310600310445
 10
7.612582862922526
 20
6.078308671858687
 10
7.82320623507236
 20
6.078307233267992
 10
8.035357834460928
 20
6.078307176138561
 10
8.248933685629541
 20
6.078308585199938
 10
8.463829813119529
 20
6.078311545181663
 10
8.679942241472213
 20
6.078316140813276
 10
8.867857198441045
 20
6.078318652273003
 10
9.056622949929883
 20
6.078308729752839
  0
LWPOLYLINE
  5
CC
330
1F
100
AcDbEntity
  8
0
  6
CONTINUOUS
 62
     7
100
AcDbPolyline
 90
       17
 70
   128
 43
0.0
 10
9.056622949929881
 20
6.07830872975284
 10
9.291671723750566
 20
6.078300274829162
 10
9.527448143455654
 20
6.07830857562881
 10
9.763919008671466
 20
6.078314546456043
 10
10.00105092682499
 20
6.07831511373331
 10
10.29929870463482
 20
6.078312337900617
 10
10.59850047810515
 20
6.078310197619718
 10
10.89855659359266
 20
6.078309303841202
 10
11.19936739745404
 20
6.078310267515661
 10
11.50197757459276
 20
6.078311790043694
 10
11.80528042583518
 20
6.078312232410993
 10
12.10917425515235
 20
6.078311717392139
 10
12.41355736651531
 20
6.07831036776172
 10
12.66105647799694
 20
6.07831316217059
 10
12.90883753986869
 20
6.078319108867154
 10
13.1568457986189
 20
6.078320348328234
 10
13.40502650073594
 20
6.078309021030645
  0
LINE
  5
CD
330
1F
100
AcDbEntity
  8
0
  6
CONTINUOUS
 62
     7
100
AcDbLine
 10
13.40502650073594
 20
5.728309752568032
 30
0.0
 11
16.61508714238152
 21
5.728309752568032
 31
0.0
  0
LINE
  5
CE
330
1F
100
AcDbEntity
  8
0
  6
CONTINUOUS
 62
     7
100
AcDbLine
 10
16.61508714238152
 20
6.078313756555461
 30
0.0
 11
16.61508714238152
 21
5.728309752568032
 31
0.0
  0
LINE
  5
CF
330
1F
100
AcDbEntity
  8
0
  6
CONTINUOUS
 62
     7
100
AcDbLine
 10
9.056622949967923
 20
5.728309752568032
 30
0.0
 11
13.40502650073594
 21
5.728309752568032
 31
0.0
  0
LWPOLYLINE
  5
D0
330
1F
100
AcDbEntity
  8
0
  6
CONTINUOUS
 62
     7
100
AcDbPolyline
 90
       46
 70
   128
 43
0.0
 10
13.89138025317201
 20
1.740510567888601
 10
13.8509072423837
 20
1.739693525741566
 10
13.80595852488702
 20
1.738827892883972
 10
13.75665807307517
 20
1.737914868613366
 10
13.70312985934131
 20
1.736955652227297
 10
13.65592020040039
 20
1.736131092203208
 10
13.60589108001155
 20
1.735274511266641
 10
13.55313624430581
 20
1.734386725900044
 10
13.49774943941424
 20
1.733468552585859
 10
13.43982441146787
 20
1.732520807806531
 10
13.36597486249542
 20
1.731327509233645
 10
13.28846690890322
 20
1.730089270861888
 10
13.20750764116039
 20
1.728807809327985
 10
13.12330414973608
 20
1.727484841268662
 10
13.05162381053088
 20
1.726364606408502
 10
12.97781665022647
 20
1.725215285976459
 10
12.90201522124998
 20
1.724037951991705
 10
12.82435207602856
 20
1.722833676473411
 10
12.74495976698935
 20
1.721603531440747
 10
12.64559650002054
 20
1.720063713451964
 10
12.54377571165265
 20
1.718483703720049
 10
12.43976259127264
 20
1.71686563118986
 10
12.33382232826742
 20
1.715211624806254
 10
12.24526937572583
 20
1.713823263008138
 10
12.15550072117461
 20
1.712409422302167
 10
12.06467284205927
 20
1.710971378410009
 10
11.97294221582533
 20
1.709510407053331
 10
11.88046531991832
 20
1.7080277839538
 10
11.76621529996973
 20
1.706181076702948
 10
11.65098726206894
 20
1.704300053537535
 10
11.53507704867063
 20
1.702387223934743
 10
11.41878050222952
 20
1.700445097371754
 10
11.32287048246787
 20
1.698824558668256
 10
11.22679439091605
 20
1.697182806587408
 10
11.13071724964685
 20
1.695521327203839
 10
11.03480408073304
 20
1.693841606592178
 10
10.93921990624741
 20
1.692145130827053
 10
10.83469973905966
 20
1.690258694840236
 10
10.73067221701083
 20
1.688353357965993
 10
10.62701799790119
 20
1.686440781847098
 10
10.52361773953105
 20
1.684532628126324
 10
10.31652593017278
 20
1.680736258154266
 10
10.10993288790189
 20
1.676988898845218
 10
9.834181579049943
 20
1.67206701636771
 10
9.559398053804871
 20
1.667303673638363
 10
9.285660020922151
 20
1.662766690221119
  0
LINE
  5
D1
330
1F
100
AcDbEntity
  8
0
  6
CONTINUOUS
 62
     7
100
AcDbLine
 10
5.064150739546997
 20
5.728309752568032
 30
0.0
 11
9.056622949967923
 21
5.728309752568032
 31
0.0
  0
LWPOLYLINE
  5
D2
330
1F
100
AcDbEntity
  8
0
  6
CONTINUOUS
 62
     7
100
AcDbPolyline
 90
       33
 70
   128
 43
0.0
 10
5.568350578487445
 20
1.683048385838647
 10
5.476125715112871
 20
1.68506498414712
 10
5.385457042559149
 20
1.687077500518659
 10
5.296413412727371
 20
1.689084870687898
 10
5.208616317030662
 20
1.691096371840783
 10
5.122532011754394
 20
1.693102134876371
 10
5.038232287307421
 20
1.695101103981682
 10
4.954546266959962
 20
1.697122471113616
 10
4.872762661989311
 20
1.699136542310155
 10
4.79294723806826
 20
1.701142357446585
 10
4.714754267210365
 20
1.703149649011326
 10
4.638619702606812
 20
1.705148272929582
 10
4.564607122180623
 20
1.70713728601068
 10
4.48907921685048
 20
1.709218967857999
 10
4.41597263365514
 20
1.711289574368401
 10
4.345163719496104
 20
1.713353717042088
 10
4.276883472587398
 20
1.715405825080402
 10
4.210693753948392
 20
1.7174607144204
 10
4.147150119217011
 20
1.719502664163721
 10
4.08614072400797
 20
1.721536395747055
 10
4.027868443776029
 20
1.723556366106941
 10
3.993999845578256
 20
1.724773185448147
 10
3.962335536743022
 20
1.725969035879661
 10
3.933580604409417
 20
1.727138782572193
 10
3.907893250620187
 20
1.728275645307161
 10
3.884895059998642
 20
1.729400825240564
 10
3.865187104335596
 20
1.730489731763502
 10
3.84869461600407
 20
1.731549563293663
 10
3.835617164398374
 20
1.732570659708566
 10
3.82624320576925
 20
1.733520854661435
 10
3.820108079966145
 20
1.734433228682683
 10
3.817212016773076
 20
1.735323132351975
 10
3.817376001999493
 20
1.735608987254462
  0
ARC
  5
D3
330
1F
100
AcDbEntity
  8
0
  6
CONTINUOUS
 62
     7
100
AcDbCircle
 10
13.86978263420843
 20
5.396529475308161
 30
0.0
 40
3.656082699906309
100
AcDbArc
 50
270.3384659792782
 51
272.7943191972968
  0
LWPOLYLINE
  5
D4
330
1F
100
AcDbEntity
  8
0
  6
CONTINUOUS
 62
     7
100
AcDbPolyline
 90
       24
 70
   128
 43
0.0
 10
9.285660020922149
 20
1.66276669022112
 10
9.078456946256148
 20
1.65951068750596
 10
8.872225227366387
 20
1.656476476540248
 10
8.667101995958308
 20
1.653747101486889
 10
8.462738892810339
 20
1.651428487041849
 10
8.259623290693044
 20
1.649664516762591
 10
8.05741007226454
 20
1.648600663135883
 10
7.856582543791621
 20
1.648355162909286
 10
7.657141302001173
 20
1.648958624177633
 10
7.520758932006819
 20
1.649834776305619
 10
7.385157765823063
 20
1.651038196744164
 10
7.250273974741904
 20
1.652521351400493
 10
7.116218983172061
 20
1.654235871922153
 10
6.982841641030724
 20
1.6561404845725
 10
6.850338866601425
 20
1.658197847254991
 10
6.718647391295331
 20
1.660378768746479
 10
6.587875764811968
 20
1.662659124804015
 10
6.392024028431379
 20
1.666252613625784
 10
6.198328406424359
 20
1.669982853428833
 10
6.070318597307178
 20
1.672530531918811
 10
5.94333303805546
 20
1.675115732175436
 10
5.817268234622458
 20
1.677734876796976
 10
5.69227344335567
 20
1.680380334930156
 10
5.568350578487445
 20
1.683048385838646
  0
LINE
  5
D5
330
1F
100
AcDbEntity
  8
0
  6
CONTINUOUS
 62
     7
100
AcDbLine
 10
7.720586072456084
 20
1.639522549076247
 30
0.0
 11
8.842465663289711
 21
1.639522549076247
 31
0.0
  0
LWPOLYLINE
  5
D6
330
1F
100
AcDbEntity
  8
0
  6
CONTINUOUS
 62
     7
100
AcDbPolyline
 90
       49
 70
   128
 43
0.0
 10
7.623121394983545
 20
5.526468795598153
 10
7.625310159331307
 20
5.497849016768261
 10
7.628923715391159
 20
5.476242338591946
 10
7.634189004390762
 20
5.454989196499194
 10
7.638774296339484
 20
5.440595529871687
 10
7.649550403114817
 20
5.414100739444357
 10
7.659521704849503
 20
5.394804428334937
 10
7.670932636289212
 20
5.376439586600292
 10
7.679616081181066
 20
5.364368952187634
 10
7.697793844099752
 20
5.342986760885704
 10
7.713025354918238
 20
5.328177322710589
 10
7.729325102382913
 20
5.314772972651599
 10
7.741149670030475
 20
5.306387630128455
 10
7.764719884748258
 20
5.292537534487223
 10
7.789508446493053
 20
5.281545245418406
 10
7.802905649777844
 20
5.276966464626569
 10
7.816557767921766
 20
5.273216940057621
 10
7.842890291812754
 20
5.268469853491692
 10
7.863165596793628
 20
5.266968410576017
 10
7.883454257141208
 20
5.267307599558647
 10
7.897400411335691
 20
5.26861895549413
 10
7.923537520250238
 20
5.273508526033066
 10
7.943000091208395
 20
5.279318182490051
 10
7.961908098520213
 20
5.286879845845398
 10
7.974572260071395
 20
5.29310089566975
 10
7.997561078939227
 20
5.307072386933799
 10
8.01400724244573
 20
5.319535477842189
 10
8.029389652989033
 20
5.333464684972854
 10
8.039333046538541
 20
5.34389258377611
 10
8.056551821091602
 20
5.365369885587797
 10
8.06810173308278
 20
5.383080828546987
 10
8.078196719643591
 20
5.401806896014926
 10
8.084278658069166
 20
5.415266149597973
 10
8.093743386161644
 20
5.441820566013616
 10
8.099063489569729
 20
5.462776556965021
 10
8.102703528440441
 20
5.484181808284724
 10
8.104219526475898
 20
5.49915038009701
 10
8.104835897949103
 20
5.527777618579849
 10
8.10331071487465
 20
5.549608221674784
 10
8.100074838697452
 20
5.571272108651642
 10
8.096849833806231
 20
5.586057530150482
 10
8.088548678248974
 20
5.613531515781118
 10
8.080355979999747
 20
5.633778025912026
 10
8.070619394553729
 20
5.653262068487099
 10
8.063026810167908
 20
5.666200873320592
 10
8.046763026776147
 20
5.68943514775723
 10
8.032844363389205
 20
5.705824297543279
 10
8.017724897619531
 20
5.720941597483957
 10
8.009249383698699
 20
5.728309752568032
  0
ARC
  5
D7
330
1F
100
AcDbEntity
  8
0
  6
CONTINUOUS
 62
     7
100
AcDbCircle
 10
7.883986612421823
 20
5.537015081202509
 30
0.0
 40
0.2610783135558536
100
AcDbArc
 50
132.6530706623636
 51
182.3150988742827
  0
LWPOLYLINE
  5
D8
330
1F
100
AcDbEntity
  8
0
  6
CONTINUOUS
 62
     7
100
AcDbPolyline
 90
       22
 70
   128
 43
0.0
 10
7.634391158200706
 20
5.528500797082058
 10
7.635767338679594
 20
5.506962128287282
 10
7.638780087920276
 20
5.485569403955879
 10
7.643573373460032
 20
5.463863749376236
 10
7.65004375183501
 20
5.442627536911981
 10
7.657899836339231
 20
5.422590529233449
 10
7.667243220967753
 20
5.403281783240751
 10
7.678349588415457
 20
5.384315860768055
 10
7.690884731396614
 20
5.366400877062275
 10
7.704356419216912
 20
5.350124813844722
 10
7.719002205224249
 20
5.335077857720165
 10
7.735198814278803
 20
5.320991254586424
 10
7.752417404755171
 20
5.308419373704584
 10
7.770016136050751
 20
5.297745834865046
 10
7.788343549203711
 20
5.288664043614992
 10
7.807835132784564
 20
5.281052312961953
 10
7.827824898810419
 20
5.275248514861329
 10
7.847587568771876
 20
5.271388146804721
 10
7.867548030133839
 20
5.269301670634194
 10
7.888150931354186
 20
5.269028249437831
 10
7.908667426615627
 20
5.270650468952106
 10
7.920335574772185
 20
5.27265580970962
  0
ARC
  5
D9
330
1F
100
AcDbEntity
  8
0
  6
CONTINUOUS
 62
     7
100
AcDbCircle
 10
7.894665165883322
 20
5.539274341214178
 30
0.0
 40
0.260496887367848
100
AcDbArc
 50
133.2654905178389
 51
182.3702959463044
  0
LINE
  5
DA
330
1F
100
AcDbEntity
  8
0
  6
CONTINUOUS
 62
     7
100
AcDbLine
 10
8.281525900674962
 20
1.476854690536089
 30
0.0
 11
8.021525884273927
 21
1.476854690536089
 31
0.0
  0
LINE
  5
DB
330
1F
100
AcDbEntity
  8
0
  6
CONTINUOUS
 62
     7
100
AcDbLine
 10
8.54152588427393
 20
1.476854690536089
 30
0.0
 11
8.281525900674962
 21
1.476854690536089
 31
0.0
  0
LINE
  5
DC
330
1F
100
AcDbEntity
  8
0
  6
CONTINUOUS
 62
     7
100
AcDbLine
 10
2.615087142381515
 20
6.078309379492075
 30
0.0
 11
2.615087142381522
 21
5.728309752568032
 31
0.0
  0
LINE
  5
DD
330
1F
100
AcDbEntity
  8
0
  6
CONTINUOUS
 62
     7
100
AcDbLine
 10
2.615087142381522
 20
5.728309752568032
 30
0.0
 11
5.064150739546997
 21
5.728309752568032
 31
0.0
  0
LWPOLYLINE
  5
DE
330
1F
100
AcDbEntity
  8
0
  6
CONTINUOUS
 62
     7
100
AcDbPolyline
 90
       10
 70
   128
 43
0.0
 10
15.83922729978854
 20
5.302662276165313
 10
15.79729591725227
 20
5.299429204078926
 10
15.75883562939014
 20
5.296233964059745
 10
15.72383864088072
 20
5.293077863891136
 10
15.69229715640256
 20
5.289962211356449
 10
15.66420338063421
 20
5.286888314239043
 10
15.64331227768673
 20
5.284344984927045
 10
15.62484970848909
 20
5.281831613643062
 10
15.60883385459114
 20
5.279349229935141
 10
15.59651846669449
 20
5.277123862730881
  0
ELLIPSE
  5
DF
330
1F
100
AcDbEntity
  8
0
  6
CONTINUOUS
 62
     7
100
AcDbEllipse
 10
14.41689468838777
 20
5.287263695107402
 30
0.0
 11
-1.460905885335847
 21
-0.0206644928638973
 31
0.0
210
0.0
220
0.0
230
-1.0
 40
0.0141393071880446
 41
3.143031462549577
 42
3.372099861824356
  0
ENDSEC
  0
SECTION
  2
OBJECTS
  0
DICTIONARY
  5
C
330
0
100
AcDbDictionary
  3
ACAD_GROUP
350
D
  3
ACAD_LAYOUT
350
1A
  3
ACAD_MLINESTYLE
350
17
  3
ACAD_PLOTSETTINGS
350
19
  3
ACAD_PLOTSTYLENAME
350
E
  3
ACDBHEADERROUNDTRIPXREC
350
19C
  3
ACDBVARIABLEDICTIONARY
350
196
  0
DICTIONARY
  5
15E
330
1F
100
AcDbDictionary
280
     1
  3
ACAD_LAYOUTSELFREF
360
1BE
  0
DICTIONARY
  5
160
330
1B
100
AcDbDictionary
280
     1
  3
ACAD_LAYOUTSELFREF
360
1BD
  0
DICTIONARY
  5
D
102
{ACAD_REACTORS
330
C
102
}
330
C
100
AcDbDictionary
  0
DICTIONARY
  5
1A
102
{ACAD_REACTORS
330
C
102
}
330
C
100
AcDbDictionary
  0
DICTIONARY
  5
17
102
{ACAD_REACTORS
330
C
102
}
330
C
100
AcDbDictionary
  3
STANDARD
350
18
  0
DICTIONARY
  5
19
102
{ACAD_REACTORS
330
C
102
}
330
C
100
AcDbDictionary
  0
ACDBDICTIONARYWDFLT
  5
E
102
{ACAD_REACTORS
330
C
102
}
330
C
100
AcDbDictionary
281
     1
  3
Normal
350
F
100
AcDbDictionaryWithDefault
340
F
  0
DICTIONARY
  5
19C
102
{ACAD_REACTORS
330
C
102
}
330
C
100
AcDbDictionary
  3
CEPSNTYPE
350
1A6
  3
DIMSTYLEDATA
350
1AA
  3
FINGERPRINTGUID
350
1A7
  3
HYPERLINKBASE
350
19F
  3
INSUNITS
350
1A5
  3
LAYOUTDICT
350
1A1
  3
LWETCUNION
350
1A4
  3
PLOTSETDICT
350
1A2
  3
PLOTSTYLNAMDICT
350
1A3
  3
PSVPSCALE
350
1A9
  3
PUCSBASE
350
1AD
  3
PUCSORGBACK
350
1B3
  3
PUCSORGBOTTOM
350
1AF
  3
PUCSORGFRONT
350
1B2
  3
PUCSORGLEFT
350
1B0
  3
PUCSORGRIGHT
350
1B1
  3
PUCSORGTOP
350
1AE
  3
PUCSORTHOREF
350
1AB
  3
PUCSORTHOVIEW
350
1AC
  3
STYLESHEET
350
1A0
  3
TSTACKALIGN
350
19D
  3
TSTACKSIZE
350
19E
  3
UCSBASE
350
1B6
  3
UCSORGBACK
350
1BC
  3
UCSORGBOTTOM
350
1B8
  3
UCSORGFRONT
350
1BB
  3
UCSORGLEFT
350
1B9
  3
UCSORGRIGHT
350
1BA
  3
UCSORGTOP
350
1B7
  3
UCSORTHOREF
350
1B4
  3
UCSORTHOVIEW
350
1B5
  3
VERSIONGUID
350
1A8
  0
DICTIONARY
  5
196
102
{ACAD_REACTORS
330
C
102
}
330
C
100
AcDbDictionary
  3
DIMASSOC
350
197
  0
XRECORD
  5
1BE
102
{ACAD_REACTORS
330
15E
102
}
330
15E
100
AcDbXrecord
340
1F
  0
XRECORD
  5
1BD
102
{ACAD_REACTORS
330
160
102
}
330
160
100
AcDbXrecord
340
1B
  0
MLINESTYLE
  5
18
102
{ACAD_REACTORS
330
17
102
}
330
17
100
AcDbMlineStyle
  2
STANDARD
 70
     0
  3

 62
   256
 51
90.0
 52
90.0
 71
     2
 49
0.5
 62
   256
  6
BYLAYER
 49
-0.5
 62
   256
  6
BYLAYER
  0
ACDBPLACEHOLDER
  5
F
102
{ACAD_REACTORS
330
E
102
}
330
E
100
AcDbPlaceHolder
280
     0
  0
XRECORD
  5
1A6
102
{ACAD_REACTORS
330
19C
102
}
330
19C
100
AcDbXrecord
 90
        0
  0
XRECORD
  5
1AA
102
{ACAD_REACTORS
330
19C
102
}
330
19C
100
AcDbXrecord
1000
DSTYLE
1002
{
1070
   278
 70
    44
1002
}
  0
XRECORD
  5
1A7
102
{ACAD_REACTORS
330
19C
102
}
330
19C
100
AcDbXrecord
  1
{982E84DD-1BFB-4E8F-A598-869CA60258C1}
  0
XRECORD
  5
19F
102
{ACAD_REACTORS
330
19C
102
}
330
19C
100
AcDbXrecord
  1

  0
XRECORD
  5
1A5
102
{ACAD_REACTORS
330
19C
102
}
330
19C
100
AcDbXrecord
 90
        4
  0
XRECORD
  5
1A1
102
{ACAD_REACTORS
330
19C
102
}
330
19C
100
AcDbXrecord
340
1A
  0
XRECORD
  5
1A4
102
{ACAD_REACTORS
330
19C
102
}
330
19C
100
AcDbXrecord
 90
    10781
  0
XRECORD
  5
1A2
102
{ACAD_REACTORS
330
19C
102
}
330
19C
100
AcDbXrecord
340
19
  0
XRECORD
  5
1A3
102
{ACAD_REACTORS
330
19C
102
}
330
19C
100
AcDbXrecord
340
E
  0
XRECORD
  5
1A9
102
{ACAD_REACTORS
330
19C
102
}
330
19C
100
AcDbXrecord
 40
0.0
  0
XRECORD
  5
1AD
102
{ACAD_REACTORS
330
19C
102
}
330
19C
100
AcDbXrecord
340
0
  0
XRECORD
  5
1B3
102
{ACAD_REACTORS
330
19C
102
}
330
19C
100
AcDbXrecord
 10
0.0
 20
0.0
 30
0.0
  0
XRECORD
  5
1AF
102
{ACAD_REACTORS
330
19C
102
}
330
19C
100
AcDbXrecord
 10
0.0
 20
0.0
 30
0.0
  0
XRECORD
  5
1B2
102
{ACAD_REACTORS
330
19C
102
}
330
19C
100
AcDbXrecord
 10
0.0
 20
0.0
 30
0.0
  0
XRECORD
  5
1B0
102
{ACAD_REACTORS
330
19C
102
}
330
19C
100
AcDbXrecord
 10
0.0
 20
0.0
 30
0.0
  0
XRECORD
  5
1B1
102
{ACAD_REACTORS
330
19C
102
}
330
19C
100
AcDbXrecord
 10
0.0
 20
0.0
 30
0.0
  0
XRECORD
  5
1AE
102
{ACAD_REACTORS
330
19C
102
}
330
19C
100
AcDbXrecord
 10
0.0
 20
0.0
 30
0.0
  0
XRECORD
  5
1AB
102
{ACAD_REACTORS
330
19C
102
}
330
19C
100
AcDbXrecord
340
0
  0
XRECORD
  5
1AC
102
{ACAD_REACTORS
330
19C
102
}
330
19C
100
AcDbXrecord
 70
     0
  0
XRECORD
  5
1A0
102
{ACAD_REACTORS
330
19C
102
}
330
19C
100
AcDbXrecord
  1

  0
XRECORD
  5
19D
102
{ACAD_REACTORS
330
19C
102
}
330
19C
100
AcDbXrecord
 90
        1
  0
XRECORD
  5
19E
102
{ACAD_REACTORS
330
19C
102
}
330
19C
100
AcDbXrecord
 90
       70
  0
XRECORD
  5
1B6
102
{ACAD_REACTORS
330
19C
102
}
330
19C
100
AcDbXrecord
340
0
  0
XRECORD
  5
1BC
102
{ACAD_REACTORS
330
19C
102
}
330
19C
100
AcDbXrecord
 10
0.0
 20
0.0
 30
0.0
  0
XRECORD
  5
1B8
102
{ACAD_REACTORS
330
19C
102
}
330
19C
100
AcDbXrecord
 10
0.0
 20
0.0
 30
0.0
  0
XRECORD
  5
1BB
102
{ACAD_REACTORS
330
19C
102
}
330
19C
100
AcDbXrecord
 10
0.0
 20
0.0
 30
0.0
  0
XRECORD
  5
1B9
102
{ACAD_REACTORS
330
19C
102
}
330
19C
100
AcDbXrecord
 10
0.0
 20
0.0
 30
0.0
  0
XRECORD
  5
1BA
102
{ACAD_REACTORS
330
19C
102
}
330
19C
100
AcDbXrecord
 10
0.0
 20
0.0
 30
0.0
  0
XRECORD
  5
1B7
102
{ACAD_REACTORS
330
19C
102
}
330
19C
100
AcDbXrecord
 10
0.0
 20
0.0
 30
0.0
  0
XRECORD
  5
1B4
102
{ACAD_REACTORS
330
19C
102
}
330
19C
100
AcDbXrecord
340
0
  0
XRECORD
  5
1B5
102
{ACAD_REACTORS
330
19C
102
}
330
19C
100
AcDbXrecord
 70
     0
  0
XRECORD
  5
1A8
102
{ACAD_REACTORS
330
19C
102
}
330
19C
100
AcDbXrecord
  1
{757DFDDF-0125-4943-B323-E85E6E787B1F}
  0
DICTIONARYVAR
  5
197
102
{ACAD_REACTORS
330
196
102
}
330
196
100
DictionaryVariables
280
     0
  1
1
  0
ENDSEC
  0
EOF
