  0
SECTION
  2
HEADER
  9
$ACADVER
  1
AC1014
  9
$ACADMAINTVER
 70
     9
  9
$DWGCODEPAGE
  3
ANSI_1250
  9
$INSBASE
 10
0.0
 20
0.0
 30
0.0
  9
$EXTMIN
 10
2.986295068377787
 20
1.462090528769497
 30
0.0
  9
$EXTMAX
 10
17.56258952508405
 20
17.85461257567676
 30
0.0
  9
$LIMMIN
 10
0.0
 20
0.0
  9
$LIMMAX
 10
0.0
 20
0.0
  9
$ORTHOMODE
 70
     0
  9
$REGENMODE
 70
     1
  9
$FILLMODE
 70
     1
  9
$QTEXTMODE
 70
     0
  9
$MIRRTEXT
 70
     1
  9
$DRAGMODE
 70
     2
  9
$LTSCALE
 40
1.0
  9
$OSMODE
 70
  3007
  9
$ATTMODE
 70
     1
  9
$TEXTSIZE
 40
2.5
  9
$TRACEWID
 40
1.0
  9
$TEXTSTYLE
  7
STANDARD
  9
$CLAYER
  8
0
  9
$CELTYPE
  6
BYLAYER
  9
$CECOLOR
 62
   256
  9
$CELTSCALE
 40
1.0
  9
$DELOBJ
 70
     1
  9
$DISPSILH
 70
     0
  9
$DIMSCALE
 40
1.0
  9
$DIMASZ
 40
0.3
  9
$DIMEXO
 40
0.1
  9
$DIMDLI
 40
3.75
  9
$DIMRND
 40
0.0
  9
$DIMDLE
 40
0.0
  9
$DIMEXE
 40
0.1
  9
$DIMTP
 40
0.0
  9
$DIMTM
 40
0.0
  9
$DIMTXT
 40
0.2822222222222222
  9
$DIMCEN
 40
2.5
  9
$DIMTSZ
 40
0.0
  9
$DIMTOL
 70
     0
  9
$DIMLIM
 70
     0
  9
$DIMTIH
 70
     1
  9
$DIMTOH
 70
     1
  9
$DIMSE1
 70
     0
  9
$DIMSE2
 70
     0
  9
$DIMTAD
 70
     1
  9
$DIMZIN
 70
     0
  9
$DIMBLK
  1

  9
$DIMASO
 70
     1
  9
$DIMSHO
 70
     1
  9
$DIMPOST
  1

  9
$DIMAPOST
  1

  9
$DIMALT
 70
     0
  9
$DIMALTD
 70
     3
  9
$DIMALTF
 40
0.3937007874015748
  9
$DIMLFAC
 40
10.0
  9
$DIMTOFL
 70
     1
  9
$DIMTVP
 40
0.0
  9
$DIMTIX
 70
     0
  9
$DIMSOXD
 70
     0
  9
$DIMSAH
 70
     0
  9
$DIMBLK1
  1

  9
$DIMBLK2
  1

  9
$DIMSTYLE
  2
ISO-25
  9
$DIMCLRD
 70
     0
  9
$DIMCLRE
 70
     0
  9
$DIMCLRT
 70
     0
  9
$DIMTFAC
 40
1.0
  9
$DIMGAP
 40
0.1524
  9
$DIMJUST
 70
     0
  9
$DIMSD1
 70
     0
  9
$DIMSD2
 70
     0
  9
$DIMTOLJ
 70
     0
  9
$DIMTZIN
 70
     0
  9
$DIMALTZ
 70
     0
  9
$DIMALTTZ
 70
     0
  9
$DIMFIT
 70
     3
  9
$DIMUPT
 70
     0
  9
$DIMUNIT
 70
     2
  9
$DIMDEC
 70
     2
  9
$DIMTDEC
 70
     2
  9
$DIMALTU
 70
     2
  9
$DIMALTTD
 70
     3
  9
$DIMTXSTY
  7
STANDARD
  9
$DIMAUNIT
 70
     0
  9
$LUNITS
 70
     2
  9
$LUPREC
 70
     1
  9
$SKETCHINC
 40
1.0
  9
$FILLETRAD
 40
10.0
  9
$AUNITS
 70
     0
  9
$AUPREC
 70
     0
  9
$MENU
  1
.
  9
$ELEVATION
 40
0.0
  9
$PELEVATION
 40
0.0
  9
$THICKNESS
 40
0.0
  9
$LIMCHECK
 70
     0
  9
$BLIPMODE
 70
     0
  9
$CHAMFERA
 40
10.0
  9
$CHAMFERB
 40
10.0
  9
$CHAMFERC
 40
20.0
  9
$CHAMFERD
 40
0.0
  9
$SKPOLY
 70
     0
  9
$TDCREATE
 40
2453964.574879143
  9
$TDUPDATE
 40
2453966.375507986
  9
$TDINDWG
 40
0.0164997569
  9
$TDUSRTIMER
 40
0.0164997569
  9
$USRTIMER
 70
     1
  9
$ANGBASE
 50
0.0
  9
$ANGDIR
 70
     0
  9
$PDMODE
 70
     0
  9
$PDSIZE
 40
-1.0
  9
$PLINEWID
 40
0.0
  9
$COORDS
 70
     2
  9
$SPLFRAME
 70
     0
  9
$SPLINETYPE
 70
     6
  9
$SPLINESEGS
 70
     8
  9
$ATTDIA
 70
     0
  9
$ATTREQ
 70
     1
  9
$HANDLING
 70
 22529
  9
$HANDSEED
  5
185
  9
$SURFTAB1
 70
     6
  9
$SURFTAB2
 70
     6
  9
$SURFTYPE
 70
     6
  9
$SURFU
 70
     6
  9
$SURFV
 70
     6
  9
$UCSNAME
  2

  9
$UCSORG
 10
0.0
 20
0.0
 30
0.0
  9
$UCSXDIR
 10
1.0
 20
0.0
 30
0.0
  9
$UCSYDIR
 10
0.0
 20
1.0
 30
0.0
  9
$PUCSNAME
  2

  9
$PUCSORG
 10
0.0
 20
0.0
 30
0.0
  9
$PUCSXDIR
 10
1.0
 20
0.0
 30
0.0
  9
$PUCSYDIR
 10
0.0
 20
1.0
 30
0.0
  9
$USERI1
 70
     0
  9
$USERI2
 70
     0
  9
$USERI3
 70
     0
  9
$USERI4
 70
     0
  9
$USERI5
 70
     0
  9
$USERR1
 40
0.0
  9
$USERR2
 40
0.0
  9
$USERR3
 40
0.0
  9
$USERR4
 40
0.0
  9
$USERR5
 40
0.0
  9
$WORLDVIEW
 70
     1
  9
$SHADEDGE
 70
     3
  9
$SHADEDIF
 70
    70
  9
$TILEMODE
 70
     1
  9
$MAXACTVP
 70
    48
  9
$PINSBASE
 10
0.0
 20
0.0
 30
0.0
  9
$PLIMCHECK
 70
     0
  9
$PEXTMIN
 10
1.000000000000000E+20
 20
1.000000000000000E+20
 30
1.000000000000000E+20
  9
$PEXTMAX
 10
-1.000000000000000E+20
 20
-1.000000000000000E+20
 30
-1.000000000000000E+20
  9
$PLIMMIN
 10
0.0
 20
0.0
  9
$PLIMMAX
 10
420.0
 20
297.0
  9
$UNITMODE
 70
     0
  9
$VISRETAIN
 70
     1
  9
$PLINEGEN
 70
     0
  9
$PSLTSCALE
 70
     1
  9
$TREEDEPTH
 70
  3020
  9
$PICKSTYLE
 70
     1
  9
$CMLSTYLE
  2
STANDARD
  9
$CMLJUST
 70
     0
  9
$CMLSCALE
 40
20.0
  9
$PROXYGRAPHICS
 70
     1
  9
$MEASUREMENT
 70
     1
  0
ENDSEC
  0
SECTION
  2
CLASSES
  0
CLASS
  1
ACDBDICTIONARYWDFLT
  2
AcDbDictionaryWithDefault
  3
AutoCAD 2000
 90
        0
280
     0
281
     0
  0
CLASS
  1
ACDBPLACEHOLDER
  2
AcDbPlaceHolder
  3
AutoCAD 2000
 90
        0
280
     0
281
     0
  0
CLASS
  1
LAYOUT
  2
AcDbLayout
  3
AutoCAD 2000
 90
        0
280
     0
281
     0
  0
CLASS
  1
DICTIONARYVAR
  2
AcDbDictionaryVar
  3
AutoCAD 2000
 90
        0
280
     0
281
     0
  0
CLASS
  1
LONG_TRANSACTION
  2
AcDbLongTransaction
  3
AutoCAD 2000
 90
        0
280
     0
281
     0
  0
CLASS
  1
LWPOLYLINE
  2
AcDbPolyline
  3
AutoCAD 2000
 90
        0
280
     0
281
     1
  0
CLASS
  1
HATCH
  2
AcDbHatch
  3
AutoCAD 2000
 90
        0
280
     0
281
     1
  0
CLASS
  1
XRECORD
  2
AcDbXrecord
  3
AutoCAD 2000
 90
        0
280
     0
281
     0
  0
CLASS
  1
LONG_TRANSACTION
  2
AcDbLongTransaction
  3
AutoCAD 2000
 90
        0
280
     0
281
     0
  0
CLASS
  1
LWPOLYLINE
  2
AcDbPolyline
  3
AutoCAD 2000
 90
        0
280
     0
281
     1
  0
CLASS
  1
HATCH
  2
AcDbHatch
  3
AutoCAD 2000
 90
        0
280
     0
281
     1
  0
CLASS
  1
XRECORD
  2
AcDbXrecord
  3
AutoCAD 2000
 90
        0
280
     0
281
     0
  0
ENDSEC
  0
SECTION
  2
TABLES
  0
TABLE
  2
VPORT
  5
8
330
0
100
AcDbSymbolTable
 70
     2
  0
VPORT
  5
160
330
8
100
AcDbSymbolTableRecord
100
AcDbViewportTableRecord
  2
*ACTIVE
 70
     0
 10
0.0
 20
0.0
 11
1.0
 21
1.0
 12
10.27508703892246
 22
9.658058214418193
 13
0.0
 23
0.0
 14
10.0
 24
10.0
 15
10.0
 25
10.0
 16
0.0
 26
0.0
 36
1.0
 17
0.0
 27
0.0
 37
0.0
 40
16.54965611808802
 41
1.674961119751166
 42
50.0
 43
0.0
 44
0.0
 50
0.0
 51
0.0
 71
     0
 72
  2000
 73
     1
 74
     3
 75
     0
 76
     0
 77
     0
 78
     0
  0
ENDTAB
  0
TABLE
  2
LTYPE
  5
5
330
0
100
AcDbSymbolTable
 70
     1
  0
LTYPE
  5
14
330
5
100
AcDbSymbolTableRecord
100
AcDbLinetypeTableRecord
  2
BYBLOCK
 70
     0
  3

 72
    65
 73
     0
 40
0.0
  0
LTYPE
  5
15
330
5
100
AcDbSymbolTableRecord
100
AcDbLinetypeTableRecord
  2
BYLAYER
 70
     0
  3

 72
    65
 73
     0
 40
0.0
  0
LTYPE
  5
16
330
5
100
AcDbSymbolTableRecord
100
AcDbLinetypeTableRecord
  2
CONTINUOUS
 70
     0
  3
Solid line
 72
    65
 73
     0
 40
0.0
  0
ENDTAB
  0
TABLE
  2
LAYER
  5
2
330
0
100
AcDbSymbolTable
 70
     1
  0
LAYER
  5
10
330
2
100
AcDbSymbolTableRecord
100
AcDbLayerTableRecord
  2
0
 70
     0
 62
     7
  6
CONTINUOUS
  0
ENDTAB
  0
TABLE
  2
STYLE
  5
3
330
0
100
AcDbSymbolTable
 70
     1
  0
STYLE
  5
11
330
3
100
AcDbSymbolTableRecord
100
AcDbTextStyleTableRecord
  2
STANDARD
 70
     0
 40
0.0
 41
1.0
 50
0.0
 71
     0
 42
2.5
  3
ARIAL.TTF
  4

1001
ACAD
1000
Arial
1071
       34
  0
ENDTAB
  0
TABLE
  2
VIEW
  5
6
330
0
100
AcDbSymbolTable
 70
     0
  0
ENDTAB
  0
TABLE
  2
UCS
  5
7
330
0
100
AcDbSymbolTable
 70
     0
  0
ENDTAB
  0
TABLE
  2
APPID
  5
9
330
0
100
AcDbSymbolTable
 70
     1
  0
APPID
  5
12
330
9
100
AcDbSymbolTableRecord
100
AcDbRegAppTableRecord
  2
ACAD
 70
     0
  0
ENDTAB
  0
TABLE
  2
DIMSTYLE
  5
A
330
0
100
AcDbSymbolTable
 70
     1
  0
DIMSTYLE
105
27
330
A
100
AcDbSymbolTableRecord
100
AcDbDimStyleTableRecord
  2
ISO-25
 70
     0
  3

  4

  5

  6

  7

 40
1.0
 41
2.5
 42
0.625
 43
3.75
 44
1.25
 45
0.0
 46
0.0
 47
0.0
 48
0.0
140
2.5
141
2.5
142
0.0
143
0.03937007874016
144
1.0
145
0.0
146
1.0
147
0.625
 71
     0
 72
     0
 73
     0
 74
     0
 75
     0
 76
     0
 77
     1
 78
     8
170
     0
171
     3
172
     1
173
     0
174
     0
175
     0
176
     0
177
     0
178
     0
270
     2
271
     2
272
     2
273
     2
274
     3
340
11
275
     0
280
     0
281
     0
282
     0
283
     0
284
     8
285
     0
286
     0
287
     3
288
     0
  0
ENDTAB
  0
TABLE
  2
BLOCK_RECORD
  5
1
330
0
100
AcDbSymbolTable
 70
     1
  0
BLOCK_RECORD
  5
1F
102
{ACAD_XDICTIONARY
360
123
102
}
330
1
100
AcDbSymbolTableRecord
100
AcDbBlockTableRecord
  2
*MODEL_SPACE
  0
BLOCK_RECORD
  5
1B
102
{ACAD_XDICTIONARY
360
125
102
}
330
1
100
AcDbSymbolTableRecord
100
AcDbBlockTableRecord
  2
*PAPER_SPACE
  0
ENDTAB
  0
ENDSEC
  0
SECTION
  2
BLOCKS
  0
BLOCK
  5
20
330
1F
100
AcDbEntity
  8
0
100
AcDbBlockBegin
  2
*MODEL_SPACE
 70
     0
 10
0.0
 20
0.0
 30
0.0
  3
*MODEL_SPACE
  1

  0
ENDBLK
  5
21
330
1F
100
AcDbEntity
  8
0
100
AcDbBlockEnd
  0
BLOCK
  5
1C
330
1B
100
AcDbEntity
 67
     1
  8
0
100
AcDbBlockBegin
  2
*PAPER_SPACE
 70
     0
 10
0.0
 20
0.0
 30
0.0
  3
*PAPER_SPACE
  1

  0
ENDBLK
  5
1D
330
1B
100
AcDbEntity
 67
     1
  8
0
100
AcDbBlockEnd
  0
ENDSEC
  0
SECTION
  2
ENTITIES
  0
LWPOLYLINE
  5
9E
330
1F
100
AcDbEntity
  8
0
  6
CONTINUOUS
 62
     7
100
AcDbPolyline
 90
       38
 70
   128
 43
0.0
 10
4.039126061377047
 20
12.53929771538744
 10
4.048111927209689
 20
12.64613452300644
 10
4.0616762457111
 20
12.75362458199318
 10
4.07972696965234
 20
12.86050180234345
 10
4.102217520602886
 20
12.96648595670518
 10
4.12960103179349
 20
13.07312742552164
 10
4.161503501603714
 20
13.17855819523107
 10
4.197837370758745
 20
13.28249310377576
 10
4.239030544252512
 20
13.38591384440031
 10
4.282874722000025
 20
13.48377543640225
 10
4.331252042558498
 20
13.58073525423239
 10
4.383653563283333
 20
13.6756353132539
 10
4.439939758177109
 20
13.76822946802852
 10
4.501041967980403
 20
13.85982534837191
 10
4.565992232505023
 20
13.9487956707
 10
4.634612297630723
 20
14.03490461615331
 10
4.707621501540386
 20
14.11893394485255
 10
4.768144191318794
 20
14.18343041132188
 10
4.830832764551125
 20
14.24585984270484
 10
4.895577263389231
 20
14.30611730546766
 10
4.980059605099533
 20
14.37891894041692
 10
5.067599380109562
 20
14.44809547041059
 10
5.157955290197759
 20
14.51346464833158
 10
5.297322779878444
 20
14.60818005745256
 10
5.437939138824273
 20
14.70105046378177
 10
5.579353979011673
 20
14.79269847213476
 10
5.828011293483902
 20
14.95007039797011
 10
6.079142193985222
 20
15.10346336386153
 10
6.337913200459574
 20
15.25586140936079
 10
6.599125842152638
 20
15.40403447779183
 10
6.808311667940643
 20
15.51869499257767
 10
7.018960826654933
 20
15.63064370737482
 10
7.231323435770839
 20
15.74000670622265
 10
7.445082766415243
 20
15.84661305520574
 10
7.66034885648386
 20
15.95051156791178
 10
7.876942703560177
 20
16.05161206102252
 10
8.095121981623467
 20
16.15002773583919
 10
8.314560110821105
 20
16.24560254796239
  0
LWPOLYLINE
  5
9F
330
1F
100
AcDbEntity
  8
0
  6
CONTINUOUS
 62
     7
100
AcDbPolyline
 90
       51
 70
   128
 43
0.0
 10
8.408688043649412
 20
16.02590075309465
 10
8.17276201116253
 20
15.92295334822376
 10
7.938295057312163
 20
15.81672697419018
 10
7.705154256434052
 20
15.70714814971356
 10
7.47357414144872
 20
15.59431086161075
 10
7.263692628424199
 20
15.48834327284275
 10
7.055030832539543
 20
15.37998743162186
 10
6.986015950310705
 20
15.34270800120467
 10
6.918025299073361
 20
15.30359714922792
 10
6.820893681056309
 20
15.24304626407216
 10
6.7263477446315
 20
15.17853190983877
 10
6.633926923900958
 20
15.10967078956785
 10
6.544456547818054
 20
15.03701693389601
 10
6.485286619642165
 20
14.98541893923627
 10
6.427596345976249
 20
14.93214809864723
 10
6.371455925655277
 20
14.877268919582
 10
6.316504766955315
 20
14.82038925572823
 10
6.263197177611065
 20
14.76194421427121
 10
6.211599345389583
 20
14.70200573707387
 10
6.140079236082769
 20
14.61276304588033
 10
6.072328331362942
 20
14.52062602376007
 10
6.008035390329562
 20
14.4250763363781
 10
5.94780134342195
 20
14.32691729446001
 10
5.909147240769333
 20
14.25863449897443
 10
5.87245181777779
 20
14.18926126632493
 10
5.837762299983871
 20
14.11888145758083
 10
5.804865641234502
 20
14.04700177540458
 10
5.77404671132042
 20
13.97418921315615
 10
5.745346583646091
 20
13.90053343879537
 10
5.707807278147494
 20
13.7931684630727
 10
5.674755574909258
 20
13.68433834133524
 10
5.646072060066393
 20
13.57345536894164
 10
5.622049886322622
 20
13.46147015816584
 10
5.608380953908264
 20
13.38465056877996
 10
5.596905359151409
 20
13.30745683547636
 10
5.587636929921337
 20
13.2299831456437
 10
5.580540469386139
 20
13.15169905764252
 10
5.575695863287897
 20
13.07322717474272
 10
5.573107972453585
 20
12.99466480250165
 10
5.572794289504091
 20
12.91483898056101
 10
5.574811657973571
 20
12.8350210652105
 10
5.579156023114475
 20
12.7553130609349
 10
5.586968429303253
 20
12.6644579056778
 10
5.597813199541922
 20
12.57386360574693
 10
5.611669128713678
 20
12.4836808567868
 10
5.628515011701716
 20
12.39406035444195
 10
5.646385597182003
 20
12.31325587140327
 10
5.666695848503841
 20
12.23301044975798
 10
5.689417974395019
 20
12.1534342240417
 10
5.708135322726812
 20
12.09391283745397
 10
5.72820442033715
 20
12.03483362838705
  0
ARC
  5
A0
330
1F
100
AcDbEntity
  8
0
  6
CONTINUOUS
 62
     7
100
AcDbCircle
 10
6.27748978074136
 20
12.23087840816448
 30
0.0
 40
2.583712679065437
100
AcDbArc
 50
171.0095668359659
 51
199.3238792377332
  0
LWPOLYLINE
  5
A1
330
1F
100
AcDbEntity
  8
0
  6
CONTINUOUS
 62
     7
100
AcDbPolyline
 90
       38
 70
   128
 43
0.0
 10
15.66089639422524
 20
15.49982020212916
 10
15.6303686971547
 20
15.58082146363066
 10
15.59573779049878
 20
15.66033484754352
 10
15.55714941412947
 20
15.73806689015226
 10
15.51474930791881
 20
15.81372412774145
 10
15.46868321173878
 20
15.88701309659561
 10
15.42642418842137
 20
15.94773564545442
 10
15.38159869983235
 20
16.00658923423887
 10
15.3259807549367
 20
16.07292188522114
 10
15.26698398691806
 20
16.13649257097442
 10
15.20484313229354
 20
16.19707288488497
 10
15.13979292758024
 20
16.25443442033906
 10
15.07206810929529
 20
16.30834877072296
 10
15.01209520594317
 20
16.35166365499323
 10
14.95032029986724
 20
16.39236732699916
 10
14.88090633009005
 20
16.43375940291872
 10
14.80963032946967
 20
16.47185562133252
 10
14.73685200744081
 20
16.50683719521056
 10
14.66318512922291
 20
16.53993939914446
 10
14.53645669730302
 20
16.59382113786785
 10
14.40825420205025
 20
16.6441677891164
 10
14.27872607206655
 20
16.6909199664537
 10
14.16053375785215
 20
16.73006659311325
 10
14.04139211915879
 20
16.76622115688348
 10
13.9110246717341
 20
16.80207351162853
 10
13.77972724627325
 20
16.83435411664536
 10
13.66153579684759
 20
16.86018479845913
 10
13.54272949458014
 20
16.88311713642166
 10
13.42341534082478
 20
16.90313126563022
 10
13.33331888884065
 20
16.91626490464325
 10
13.24299627485455
 20
16.92774035242115
 10
13.15309043193834
 20
16.93749255980369
 10
13.06302135340507
 20
16.94559942372547
 10
12.93966055514463
 20
16.95400947105084
 10
12.81610852185718
 20
16.95933024450016
 10
12.69248141481681
 20
16.96156281603265
 10
12.55001291037351
 20
16.96030727659673
 10
12.40763981329432
 20
16.95494871775012
  0
LWPOLYLINE
  5
A2
330
1F
100
AcDbEntity
  8
0
  6
CONTINUOUS
 62
     7
100
AcDbPolyline
 90
       41
 70
   128
 43
0.0
 10
12.39256664493037
 20
17.24625490850651
 10
12.536732111381
 20
17.25176283083784
 10
12.6573062849487
 20
17.25331373180338
 10
12.77790042076254
 20
17.25208520373457
 10
12.89841832699827
 20
17.24807800729287
 10
13.01897435981899
 20
17.24128166639939
 10
13.13935763515384
 20
17.23170476165865
 10
13.25947196770814
 20
17.21935478143447
 10
13.38112083825886
 20
17.20397994339634
 10
13.50239301123152
 20
17.18575848583467
 10
13.62318870226604
 20
17.16470533765936
 10
13.74605808627579
 20
17.14027948164526
 10
13.8683258322788
 20
17.11291900367244
 10
13.98988709962969
 20
17.08264748829225
 10
14.13664461436486
 20
17.04194446505067
 10
14.26088307937416
 20
17.00385386297149
 10
14.38417691465918
 20
16.96268213915064
 10
14.50641321121878
 20
16.9184692799846
 10
14.62747906005184
 20
16.87125527186989
 10
14.74839757417215
 20
16.82059522514066
 10
14.86801257322085
 20
16.76692994147618
 10
14.98654352069925
 20
16.71014540330033
 10
15.10361544794506
 20
16.6504109367484
 10
15.17311771455707
 20
16.61317811503287
 10
15.2420629148112
 20
16.57372465425291
 10
15.30931829605365
 20
16.5313931819006
 10
15.37461005403702
 20
16.4861637300287
 10
15.43879658836732
 20
16.43726168980769
 10
15.50076024808232
 20
16.38550862184893
 10
15.56031461079796
 20
16.3310604920093
 10
15.61797115012918
 20
16.27336029922007
 10
15.67161097618145
 20
16.21463546555635
 10
15.72265488662625
 20
16.15353931664967
 10
15.7709567477973
 20
16.09025317465007
 10
15.81637042602831
 20
16.02495836170763
 10
15.85973188002841
 20
15.95623853396308
 10
15.8999713461673
 20
15.88559751164309
 10
15.9369658084243
 20
15.81325086222126
 10
15.97105310075948
 20
15.73837161034764
 10
15.99430866027682
 20
15.68134552866904
 10
16.01560036196641
 20
15.62355750205824
  0
LWPOLYLINE
  5
A3
330
1F
100
AcDbEntity
  8
0
  6
CONTINUOUS
 62
     7
100
AcDbPolyline
 90
       41
 70
   128
 43
0.0
 10
14.01674275827604
 20
12.33954914154739
 10
14.10852881922392
 20
12.40645867711895
 10
14.19876450490797
 20
12.47546973458725
 10
14.28738113986681
 20
12.54652411901925
 10
14.37475616902092
 20
12.61994836278078
 10
14.46042463152369
 20
12.69537991659953
 10
14.54431494241553
 20
12.77276179325614
 10
14.62759468877217
 20
12.85325193824381
 10
14.70897869672565
 20
12.93568091124079
 10
14.78840137454582
 20
13.01997974213457
 10
14.86620746232132
 20
13.10655032679188
 10
14.94196223956881
 20
13.19494302363533
 10
15.01560231503071
 20
13.28508438178253
 10
15.09021154402138
 20
13.38103742598766
 10
15.16244280158525
 20
13.47879332413566
 10
15.23241688542077
 20
13.57853799928012
 10
15.2999083557075
 20
13.67997915651862
 10
15.36534485112152
 20
13.78382464874196
 10
15.42818418151839
 20
13.8892623231716
 10
15.48853578284036
 20
13.99649209617177
 10
15.54620182413923
 20
14.1051898992932
 10
15.57981786132668
 20
14.17190637390709
 10
15.6113466907915
 20
14.2396169260211
 10
15.64001406469148
 20
14.30903411496765
 10
15.66563692769506
 20
14.37963230197385
 10
15.68858847929962
 20
14.45274042762765
 10
15.70827434906735
 20
14.52679517962441
 10
15.72477011320088
 20
14.60225279377481
 10
15.73787457135671
 20
14.67837309063164
 10
15.74729969192994
 20
14.75253644079826
 10
15.75350520384345
 20
14.8270387050259
 10
15.75649274326034
 20
14.90317455252034
 10
15.75611436884531
 20
14.97944304255693
 10
15.75237630817039
 20
15.05562127754806
 10
15.7452847888076
 20
15.13148635990612
 10
15.73458947819378
 20
15.20850982783479
 10
15.7204333857849
 20
15.28497344688063
 10
15.70819203961181
 20
15.33926567436051
 10
15.6942039746228
 20
15.39313451452267
 10
15.6784146628982
 20
15.44674717467604
 10
15.66089639422524
 20
15.49982020212916
  0
LWPOLYLINE
  5
A4
330
1F
100
AcDbEntity
  8
0
  6
CONTINUOUS
 62
     7
100
AcDbPolyline
 90
       41
 70
   128
 43
0.0
 10
16.01560036196641
 20
15.62355750205824
 10
16.03877452228978
 20
15.55246115001279
 10
16.05897641001297
 20
15.48046377961532
 10
16.07637848807647
 20
15.40667817026716
 10
16.09066871489979
 20
15.33215854391858
 10
16.1018139296305
 20
15.25710401865084
 10
16.10978097141621
 20
15.1817137125452
 10
16.11460389532949
 20
15.10491973998415
 10
16.11613945990611
 20
15.02798970119743
 10
16.11447657938368
 20
14.95322964512601
 10
16.1097084750514
 20
14.87860320306169
 10
16.10170553418993
 20
14.80321496223576
 10
16.09052217913085
 20
14.72816423040892
 10
16.07619227636837
 20
14.65365025809764
 10
16.05874969239672
 20
14.57987229581843
 10
16.03787549693592
 20
14.50580986630042
 10
16.01385345294447
 20
14.43270786417533
 10
15.98947918809671
 20
14.36754971660528
 10
15.96301788912913
 20
14.30318162599545
 10
15.9350706188664
 20
14.23941574947349
 10
15.9062384401332
 20
14.1760642441671
 10
15.85313130348901
 20
14.06411757035675
 10
15.79738497642685
 20
13.95344206558871
 10
15.73904613426899
 20
13.84413055861986
 10
15.68584819410062
 20
13.74956269064383
 10
15.63070339571757
 20
13.6561167155723
 10
15.56286119492258
 20
13.54688737196964
 10
15.4923260881905
 20
13.43930782511854
 10
15.41916408463903
 20
13.3334736379939
 10
15.3434411933858
 20
13.22948037357059
 10
15.26522342354851
 20
13.12742359482351
 10
15.16820321185094
 20
13.00767936609507
 10
15.06768171944685
 20
12.8908148519639
 10
14.96378935093715
 20
12.77698179619933
 10
14.86693224939088
 20
12.67665522365327
 10
14.76744015154921
 20
12.57894118591037
 10
14.66448697666363
 20
12.4831006036692
 10
14.558998116024
 20
12.39005829390425
 10
14.43825464836523
 20
12.28951794128421
 10
14.31452256590426
 20
12.19262203918168
 10
14.18796875878952
 20
12.09950158677174
  0
LWPOLYLINE
  5
A5
330
1F
100
AcDbEntity
  8
0
  6
CONTINUOUS
 62
     7
100
AcDbPolyline
 90
       50
 70
   128
 43
0.0
 10
5.72820442033715
 20
12.03483362838705
 10
5.768136324528002
 20
11.92861923011032
 10
5.81243241538868
 20
11.8241499107845
 10
5.86137123121743
 20
11.72090046764169
 10
5.914569131362036
 20
11.61977994680096
 10
5.953195550010848
 20
11.55221566993268
 10
5.993730941675769
 20
11.48576097301998
 10
6.036125242053947
 20
11.42049534662198
 10
6.080685124519822
 20
11.35599435384854
 10
6.127077133892815
 20
11.29277868644201
 10
6.175243050392515
 20
11.23092441876239
 10
6.248116609281032
 20
11.14380077085794
 10
6.324523310232535
 20
11.05975897480979
 10
6.404895778729708
 20
10.9783972055139
 10
6.488574904304645
 20
10.90044083743335
 10
6.547378213471358
 20
10.84937242473439
 10
6.607612164923651
 20
10.79997532118269
 10
6.669202948657122
 20
10.75230636459399
 10
6.732575759827377
 20
10.70606836920245
 10
6.79724884198118
 20
10.66163968120374
 10
6.863142730686801
 20
10.619072125895
 10
6.961148118792364
 20
10.56049536023695
 10
7.061484864647042
 20
10.50600936165646
 10
7.164693949940484
 20
10.45537416858952
 10
7.269912257084039
 20
10.40905976718277
 10
7.342617256605876
 20
10.38003668227586
 10
7.416125419535772
 20
10.35306813428167
 10
7.49034936584543
 20
10.32818677340504
 10
7.56578860080509
 20
10.30525011717941
 10
7.641862293826882
 20
10.28445542351095
 10
7.718478993817845
 20
10.26582834479147
 10
7.831040053733572
 20
10.24257973250051
 10
7.944463167475272
 20
10.22399038292806
 10
8.059342246440435
 20
10.21001365095303
 10
8.174701300858723
 20
10.20080907672003
 10
8.253427359507249
 20
10.19728233671827
 10
8.332236996687631
 20
10.19597595200186
 10
8.411036265357887
 20
10.1968906936334
 10
8.490347685798166
 20
10.20005778282444
 10
8.569553125219437
 20
10.20547370208329
 10
8.648557110327393
 20
10.21313107685714
 10
8.753404299734212
 20
10.22681843673878
 10
8.85766722527917
 20
10.24441628207898
 10
9.065974885582827
 20
10.28509118067711
 10
9.273738028715094
 20
10.32851837180655
 10
9.480987180993873
 20
10.37431433404645
 10
9.688630631265404
 20
10.42255580268208
 10
9.895715743353726
 20
10.47314628380326
 10
10.10232539924345
 20
10.52609011738841
 10
10.30833292044839
 20
10.5813391422545
  0
LWPOLYLINE
  5
A6
330
1F
100
AcDbEntity
  8
0
  6
CONTINUOUS
 62
     7
100
AcDbPolyline
 90
       51
 70
   128
 43
0.0
 10
10.38622599273664
 20
10.29602956101668
 10
10.13739909446059
 20
10.22982815400176
 10
9.887714409925012
 20
10.16685088055969
 10
9.637234927579029
 20
10.10711332195025
 10
9.386023635871806
 20
10.05063105943323
 10
9.133420383893712
 20
9.99727018626886
 10
8.880124139593723
 20
9.947190445412831
 10
8.626199169738175
 20
9.900403657113406
 10
8.3717097410934
 20
9.85692164161885
 10
8.139747476328338
 20
9.820242404554157
 10
7.907360542003255
 20
9.786302187440622
 10
7.674597655237436
 20
9.755106948930091
 10
7.499653727221637
 20
9.733497200185794
 10
7.324525395567224
 20
9.713437522362017
 10
7.149501467445178
 20
9.694956869052949
 10
6.974321216099404
 20
9.678023026691267
 10
6.797886784103948
 20
9.662544169556881
 10
6.621321874645549
 20
9.6486336353714
 10
6.532874988668243
 20
9.642190013611475
 10
6.444347036817912
 20
9.636645832576485
 10
6.355759193126892
 20
9.632972925925434
 10
6.267132631627522
 20
9.632143127317323
 10
6.159153852285419
 20
9.635514761994325
 10
6.051315111130683
 20
9.643383906267029
 10
5.943896736717843
 20
9.655727678085852
 10
5.837179057601436
 20
9.672523195401209
 10
5.728174804024194
 20
9.694459137186839
 10
5.620112447970901
 20
9.721075930640585
 10
5.51328840541889
 20
9.752293551768952
 10
5.407999092345496
 20
9.788031976578439
 10
5.307266777276376
 20
9.827064345388818
 10
5.208160016655088
 20
9.870291948033761
 10
5.110932290887986
 20
9.917595109898352
 10
5.01583708038142
 20
9.968854156367662
 10
4.920298995080842
 20
10.02569223994536
 10
4.827188443716559
 20
10.08661097004614
 10
4.736754175047595
 20
10.15143665315987
 10
4.649244937832976
 20
10.21999559577645
 10
4.567052392771898
 20
10.29017703910573
 10
4.487765436789312
 20
10.36376154879224
 10
4.411583202100984
 20
10.44055591156755
 10
4.338704820922679
 20
10.52036691416323
 10
4.267252323269733
 20
10.60555870057659
 10
4.199426359115586
 20
10.69379235861976
 10
4.135408297363239
 20
10.7848261996955
 10
4.075379506915693
 20
10.87841853520657
 10
4.019881638426425
 20
10.97365629119003
 10
3.968396314889198
 20
11.07128978543575
 10
3.921055516007594
 20
11.17105334357464
 10
3.877991221485195
 20
11.27268129123758
 10
3.839335411025582
 20
11.37590795405546
  0
ARC
  5
A7
330
1F
100
AcDbEntity
  8
0
  6
CONTINUOUS
 62
     7
100
AcDbCircle
 10
8.652750770232886
 20
36.87891272623361
 30
0.0
 40
19.97085467770365
100
AcDbArc
 50
261.2896542844952
 51
277.8396943685709
  0
ARC
  5
A8
330
1F
100
AcDbEntity
  8
0
  6
CONTINUOUS
 62
     7
100
AcDbCircle
 10
8.688099078427184
 20
36.90717977818133
 30
0.0
 40
19.93949648047554
100
AcDbArc
 50
261.3206260124351
 51
277.7963984451151
  0
ARC
  5
A9
330
1F
100
AcDbEntity
  8
0
  6
CONTINUOUS
 62
     7
100
AcDbCircle
 10
7.198739290398053
 20
21.93255324306055
 30
0.0
 40
11.76943643962564
100
AcDbArc
 50
285.3199698679298
 51
305.4011379053573
  0
ARC
  5
AA
330
1F
100
AcDbEntity
  8
0
  6
CONTINUOUS
 62
     7
100
AcDbCircle
 10
7.229076079254065
 20
21.8601730198566
 30
0.0
 40
11.9873687485133
100
AcDbArc
 50
285.2703017738209
 51
305.4870391266081
  0
LWPOLYLINE
  5
AB
330
1F
100
AcDbEntity
  8
0
  6
CONTINUOUS
 62
     7
100
AcDbPolyline
 90
       75
 70
   128
 43
0.0
 10
11.9669910525586
 20
10.88747693139386
 10
11.96561487207971
 20
10.88847498550808
 10
11.96260212283903
 20
10.88875599458805
 10
11.95780883729927
 20
10.88829296654092
 10
11.9513384589243
 20
10.88707517048752
 10
11.94348237442008
 20
10.88517700065179
 10
11.93413898979155
 20
10.8825931265834
 10
11.92303262234385
 20
10.87923836237578
 10
11.91049747936269
 20
10.87520900666923
 10
11.89702579154239
 20
10.87067647844568
 10
11.88238000553506
 20
10.86557446938986
 10
11.8661833964805
 20
10.85976951132208
 10
11.84896480600414
 20
10.85345065485153
 10
11.83136607470856
 20
10.84686380356446
 10
11.8130386615556
 20
10.83988861461069
 10
11.79354707797474
 20
10.83235832834125
 10
11.77355731194889
 20
10.82452950141566
 10
11.75379464198743
 20
10.8166930414432
 10
11.73383418062547
 20
10.80868665624384
 10
11.71323127940512
 20
10.80032887988536
 10
11.69271478414368
 20
10.79191172080495
 10
11.67300724032861
 20
10.7837346538332
 10
11.65365944551983
 20
10.775613897768
 10
11.63426812405482
 20
10.76737324356116
 10
11.61554253460622
 20
10.75930648822457
 10
11.59811589096309
 20
10.75168685653047
 10
11.58157011971672
 20
10.74433249949371
 10
11.56558870236475
 20
10.73709165925872
 10
11.55078092065866
 20
10.73022911244859
 10
11.53762198890711
 20
10.72396591983517
 10
11.52576837877088
 20
10.71814158305728
 10
11.51502600469793
 20
10.71264555587273
 10
11.50583439259242
 20
10.70768785426491
 10
11.49845907052917
 20
10.70341839306526
 10
11.49266549069228
 20
10.69971398860215
 10
11.48840402914133
 20
10.69651797006542
 10
11.4858929671192
 20
10.69396571880369
 10
11.48515397208574
 20
10.69212118394167
 10
11.4860906180479
 20
10.69091282187823
 10
11.4888030957004
 20
10.69034469110071
 10
11.49326266557398
 20
10.690464353996
 10
11.49924380964925
 20
10.6912426211073
 10
11.50680096387907
 20
10.69266815179108
 10
11.51617240880461
 20
10.69480578657511
 10
11.52708616095828
 20
10.69760957881938
 10
11.53909929847978
 20
10.70095979342442
 10
11.55240814671345
 20
10.70490510003658
 10
11.56736224289934
 20
10.70956433907943
 10
11.58347818680618
 20
10.71480037504981
 10
11.60014506348077
 20
10.72041230071321
 10
11.61768008278251
 20
10.72650312341644
 10
11.63650484755545
 20
10.73323254744327
 10
11.65598019417118
 20
10.74038344282457
 10
11.6753922640707
 20
10.74769033931959
 10
11.6951482722751
 20
10.75530100239226
 10
11.71569420179461
 20
10.76339767362528
 10
11.73630875400703
 20
10.77170424192028
 10
11.7562591590486
 20
10.77991887425406
 10
11.77599468304938
 20
10.78821756547768
 10
11.79593531190597
 20
10.79678388903062
 10
11.81536011257784
 20
10.80531277373062
 10
11.83360630628959
 20
10.81350295054833
 10
11.85110802218947
 20
10.82153680217962
 10
11.86821233811182
 20
10.82957803070173
 10
11.88427925423835
 20
10.83732831323619
 10
11.89878797311256
 20
10.84452317634312
 10
11.91210939433468
 20
10.85133134943576
 10
11.9244789580123
 20
10.85787794218073
 10
11.93540771432202
 20
10.863908194181
 10
11.94456890168066
 20
10.86922581206288
 10
11.95223380113127
 20
10.87396940304245
 10
11.95849953162964
 20
10.87821130628321
 10
11.96308176326765
 20
10.88177314443182
 10
11.96635021759679
 20
10.88516915415658
 10
11.9669910525586
 20
10.88747693139386
  0
LWPOLYLINE
  5
AC
330
1F
100
AcDbEntity
  8
0
  6
CONTINUOUS
 62
     7
100
AcDbPolyline
 90
       17
 70
   128
 43
0.0
 10
3.78814839528229
 20
15.4326217422879
 10
3.829744154644282
 20
15.24526868527384
 10
3.867855805268239
 20
15.05712578329443
 10
3.902492236015912
 20
14.86829370065591
 10
3.933662335749056
 20
14.6788731016645
 10
3.961374993329422
 20
14.48896465062645
 10
3.981939897232628
 20
14.3294814369725
 10
4.000070830983946
 20
14.16969337690475
 10
4.015750307789743
 20
14.00965522971535
 10
4.028833861817627
 20
13.85108698505643
 10
4.039469705819176
 20
13.6923259607593
 10
4.047621557705398
 20
13.53342744263015
 10
4.054264933371428
 20
13.3346557806978
 10
4.056867402013015
 20
13.1357202906982
 10
4.055298633188749
 20
12.93675765894049
 10
4.049428296457229
 20
12.73790457173385
 10
4.039126061377046
 20
12.53929771538744
  0
LWPOLYLINE
  5
AD
330
1F
100
AcDbEntity
  8
0
  6
CONTINUOUS
 62
     7
100
AcDbPolyline
 90
       17
 70
   128
 43
0.0
 10
3.706865773249078
 20
15.51237832029207
 10
3.738216259956005
 20
15.30709665082205
 10
3.764944695749643
 20
15.10110953230308
 10
3.787069516337398
 20
14.89457541922488
 10
3.804609157426673
 20
14.68765276607716
 10
3.81708838091712
 20
14.48988622992705
 10
3.825401955652271
 20
14.29187828034785
 10
3.829532267609091
 20
14.09376050097626
 10
3.829427100944953
 20
13.89294745690764
 10
3.824953237159762
 20
13.69216030355377
 10
3.816053077392393
 20
13.49154520287475
 10
3.806226590422398
 20
13.33840637363609
 10
3.793732192629115
 20
13.18543807965373
 10
3.778526529319204
 20
13.03271723182386
 10
3.760566245799326
 20
12.88032074104267
 10
3.743977194670383
 20
12.7572373085509
 10
3.72551944040779
 20
12.63442068670102
  0
LINE
  5
AE
330
1F
100
AcDbEntity
  8
0
  6
CONTINUOUS
 62
     7
100
AcDbLine
 10
5.411429458858185
 20
17.23683877898984
 30
0.0
 11
5.679130145028387
 21
17.19602491975824
 31
0.0
  0
ARC
  5
AF
330
1F
100
AcDbEntity
  8
0
  6
CONTINUOUS
 62
     7
100
AcDbCircle
 10
5.186002315388049
 20
15.75498474826756
 30
0.0
 40
1.498902520306435
100
AcDbArc
 50
81.35019356810426
 51
189.3151210142651
  0
ARC
  5
B0
330
1F
100
AcDbEntity
  8
0
  6
CONTINUOUS
 62
     7
100
AcDbCircle
 10
13.0146382980859
 20
5.296788194737909
 30
0.0
 40
11.96564827554698
100
AcDbArc
 50
92.98004373703292
 51
97.78915482859975
  0
LINE
  5
B1
330
1F
100
AcDbEntity
  8
0
  6
CONTINUOUS
 62
     7
100
AcDbLine
 10
6.196355710023365
 20
9.018866087574648
 30
0.0
 11
2.986295068377788
 21
8.854612575676759
 31
0.0
  0
LINE
  5
B2
330
1F
100
AcDbEntity
  8
0
  6
CONTINUOUS
 62
     7
100
AcDbLine
 10
2.986295068377788
 20
8.854612575676759
 30
0.0
 11
2.986295068377788
 21
17.85461257567676
 31
0.0
  0
LINE
  5
B3
330
1F
100
AcDbEntity
  8
0
  6
CONTINUOUS
 62
     7
100
AcDbLine
 10
2.986295068377788
 20
17.85461257567676
 30
0.0
 11
16.9862950683319
 21
17.85461257554839
 31
0.0
  0
LINE
  5
B4
330
1F
100
AcDbEntity
  8
0
  6
CONTINUOUS
 62
     7
100
AcDbLine
 10
16.98629506837779
 20
17.85461257542002
 30
0.0
 11
16.98629506837777
 21
16.36503724034082
 31
0.0
  0
ARC
  5
B5
330
1F
100
AcDbEntity
  8
0
  6
CONTINUOUS
 62
     7
100
AcDbCircle
 10
5.149538591156843
 20
29.47715884154075
 30
0.0
 40
20.48505720000152
100
AcDbArc
 50
272.9291759898493
 51
285.270326705278
  0
ARC
  5
B6
330
1F
100
AcDbEntity
  8
0
  6
CONTINUOUS
 62
     7
100
AcDbCircle
 10
11.14538878038014
 20
16.36500869484331
 30
0.0
 40
5.840906288067375
100
AcDbArc
 50
305.5001342909541
 51
0.0
  0
ARC
  5
B7
330
1F
100
AcDbEntity
  8
0
  6
CONTINUOUS
 62
     7
100
AcDbCircle
 10
7.2311123137234
 20
21.85260949734242
 30
0.0
 40
12.5814692891997
100
AcDbArc
 50
285.2704290425446
 51
305.5001272809237
  0
LINE
  5
B8
330
1F
100
AcDbEntity
  8
0
  6
CONTINUOUS
 62
     7
100
AcDbLine
 10
5.40177001180726
 20
17.17324349486712
 30
0.0
 11
5.628378378494791
 21
17.13849701785216
 31
0.0
  0
ARC
  5
B9
330
1F
100
AcDbEntity
  8
0
  6
CONTINUOUS
 62
     7
100
AcDbCircle
 10
13.00036557086825
 20
5.293048440667623
 30
0.0
 40
11.91281795221841
100
AcDbArc
 50
97.8329965215576
 51
113.1625765738668
  0
ELLIPSE
  5
BA
330
1F
100
AcDbEntity
  8
0
  6
CONTINUOUS
 62
     7
100
AcDbEllipse
 10
5.184521534478324
 20
15.75638610957622
 30
0.0
 11
1.013579261618498
 21
-1.013579261540495
 31
0.0
210
0.0
220
0.0
230
1.0
 40
0.9999984691455791
 41
2.204047494193855
 42
4.154826600026829
  0
ARC
  5
BB
330
1F
100
AcDbEntity
  8
0
  6
CONTINUOUS
 62
     7
100
AcDbCircle
 10
13.01705979164838
 20
5.260842320900267
 30
0.0
 40
11.7099775070798
100
AcDbArc
 50
92.98318027157909
 51
113.175093433816
  0
ARC
  5
BC
330
1F
100
AcDbEntity
  8
0
  6
CONTINUOUS
 62
     7
100
AcDbCircle
 10
13.65790625517023
 20
6.035053135003638
 30
0.0
 40
5.116846036580883
100
AcDbArc
 50
110.5818813937535
 51
113.6421999003753
  0
CIRCLE
  5
BD
330
1F
100
AcDbEntity
  8
0
  6
CONTINUOUS
 62
     7
100
AcDbCircle
 10
11.31985634288641
 20
11.95461258711965
 30
0.0
 40
0.5497768510662056
  0
CIRCLE
  5
BE
330
1F
100
AcDbEntity
  8
0
  6
CONTINUOUS
 62
     7
100
AcDbCircle
 10
11.31985631008434
 20
11.95461257567675
 30
0.0
 40
0.2600000000000016
  0
LINE
  5
BF
330
1F
100
AcDbEntity
  8
0
  6
CONTINUOUS
 62
     7
100
AcDbLine
 10
5.737784736125655
 20
1.739945185303125
 30
0.0
 11
10.75891654746959
 21
1.639522549076247
 31
0.0
  0
LINE
  5
C0
330
1F
100
AcDbEntity
  8
0
  6
CONTINUOUS
 62
     7
100
AcDbLine
 10
11.88079613830322
 20
1.639522549076247
 30
0.0
 11
13.49260348234865
 21
1.671758695957155
 31
0.0
  0
LWPOLYLINE
  5
C1
330
1F
100
AcDbEntity
  8
0
  6
CONTINUOUS
 62
     7
100
AcDbPolyline
 90
        5
 70
   128
 43
0.0
 10
3.807018669727407
 20
5.728309752568032
 10
4.372791678911323
 20
4.43806383944945
 10
4.760851419976728
 20
3.552760612112621
 10
4.987594001704745
 20
3.035386760501469
 10
5.55293996612312
 20
1.745133568547282
  0
ARC
  5
C2
330
1F
100
AcDbEntity
  8
0
  6
CONTINUOUS
 62
     7
100
AcDbCircle
 10
11.31985634288641
 20
2.317568672815438
 30
0.0
 40
0.8800000000000007
100
AcDbArc
 50
287.1847947833361
 51
309.6005648414015
  0
ARC
  5
C3
330
1F
100
AcDbEntity
  8
0
  6
CONTINUOUS
 62
     7
100
AcDbCircle
 10
11.31985634288641
 20
2.317568672815438
 30
0.0
 40
0.8800000048457611
100
AcDbArc
 50
230.3994354196112
 51
252.8152030787332
  0
LWPOLYLINE
  5
C4
330
1F
100
AcDbEntity
  8
0
  6
CONTINUOUS
 62
     7
100
AcDbPolyline
 90
        3
 70
   128
 43
0.0
 10
15.78439588429669
 20
1.735576387592252
 10
15.95725128882214
 20
3.80609763726886
 10
16.11803011671498
 20
5.728309752568032
  0
LINE
  5
C5
330
1F
100
AcDbEntity
  8
0
  6
CONTINUOUS
 62
     7
100
AcDbLine
 10
3.686801505485562
 20
5.728309752568032
 30
0.0
 11
3.723582728804711
 21
5.307898446270616
 31
0.0
  0
LWPOLYLINE
  5
C6
330
1F
100
AcDbEntity
  8
0
  6
CONTINUOUS
 62
     7
100
AcDbPolyline
 90
        6
 70
   128
 43
0.0
 10
6.196355710023365
 20
6.078309021030645
 10
5.928850656798897
 20
6.078306389146137
 10
5.126335496247119
 20
6.078309300178418
 10
4.591325389450227
 20
6.078308317319295
 10
3.5213051771839
 20
6.078309541945011
 10
2.986295068377788
 20
6.078313756555461
  0
LINE
  5
C7
330
1F
100
AcDbEntity
  8
0
  6
CONTINUOUS
 62
     7
100
AcDbLine
 10
16.98524589662923
 20
6.078313442479069
 30
0.0
 11
16.9862950683319
 21
6.078313443703498
 31
0.0
  0
LINE
  5
C8
330
1F
100
AcDbEntity
  8
0
  6
CONTINUOUS
 62
     7
100
AcDbLine
 10
16.98629506837779
 20
6.078313443703483
 30
0.0
 11
16.98629506837778
 21
6.078312614067633
 31
0.0
  0
LINE
  5
C9
330
1F
100
AcDbEntity
  8
0
  6
CONTINUOUS
 62
     7
100
AcDbLine
 10
16.98629506837778
 20
6.078311590326084
 30
0.0
 11
16.98629506837777
 21
6.07830991333409
 31
0.0
  0
LWPOLYLINE
  5
CA
330
1F
100
AcDbEntity
  8
0
  6
CONTINUOUS
 62
     7
100
AcDbPolyline
 90
       45
 70
   128
 43
0.0
 10
16.98629506837776
 20
6.078309379492073
 10
16.98505881738449
 20
6.078314166955819
 10
16.98135163272499
 20
6.078311891441718
 10
16.97517586687877
 20
6.078308597152775
 10
16.96649441916871
 20
6.078307969633202
 10
16.95533017818162
 20
6.078308930880211
 10
16.94169028285773
 20
6.078310359205674
 10
16.92287516269207
 20
6.078311166506966
 10
16.9007651159526
 20
6.078310496919925
 10
16.87212121240545
 20
6.078309257390281
 10
16.83939451245607
 20
6.078308591632708
 10
16.80249562547868
 20
6.07830853484836
 10
16.76154042884733
 20
6.078308610548295
 10
16.73724758352544
 20
6.078308637733798
 10
16.71173691913518
 20
6.078308639518636
 10
16.68499001511167
 20
6.078308608010691
 10
16.65703456677599
 20
6.078308549304322
 10
16.61375918653653
 20
6.078308444030536
 10
16.56790613345538
 20
6.078308374669285
 10
16.5194024159541
 20
6.078308401219123
 10
16.46835590972439
 20
6.078308532244775
 10
16.41319000812532
 20
6.078308777422306
 10
16.35538405513527
 20
6.078309190978403
 10
16.2948421894423
 20
6.07830980595808
 10
16.23170919022166
 20
6.078310474341497
 10
16.15494872254229
 20
6.078311009467755
 10
16.07476861783436
 20
6.078310981496974
 10
15.99098860945343
 20
6.078310248178102
 10
15.90388271124501
 20
6.078309135160113
 10
15.80700316861327
 20
6.078308118682672
 10
15.7063746888218
 20
6.07830798378195
 10
15.62899855145404
 20
6.078308692468025
 10
15.54964933459465
 20
6.078309891742395
 10
15.46837918399774
 20
6.078311213481638
 10
15.38487986166177
 20
6.078312138306924
 10
15.29949889964752
 20
6.078312124064813
 10
15.21229285403685
 20
6.078310783481
 10
15.12679339513556
 20
6.078308093529956
 10
15.03967002177008
 20
6.078304710538453
 10
14.95081149544366
 20
6.078301930249317
 10
14.86039574945192
 20
6.078302060502926
 10
14.78128699673685
 20
6.078306646172594
 10
14.70107408909433
 20
6.078314119594714
 10
14.6196816044846
 20
6.078318917966437
 10
14.53723147114708
 20
6.078311792357995
  0
LWPOLYLINE
  5
CB
330
1F
100
AcDbEntity
  8
0
  6
CONTINUOUS
 62
     7
100
AcDbPolyline
 90
       21
 70
   128
 43
0.0
 10
14.53723147114707
 20
6.078311792357995
 10
14.35898550786198
 20
6.078290661969119
 10
14.17856618645957
 20
6.078289318547856
 10
13.99605538426408
 20
6.078298271152734
 10
13.81153497859972
 20
6.078308028842275
 10
13.62508684679073
 20
6.078309100675005
 10
13.41499046300358
 20
6.078305595579467
 10
13.20257581874344
 20
6.078307175048053
 10
12.98796134303828
 20
6.078310460724595
 10
12.7914387031235
 20
6.078312349789238
 10
12.59316948588049
 20
6.078312777355343
 10
12.39324538907473
 20
6.07831208150254
 10
12.19175811047167
 20
6.078310600310445
 10
11.98879934783678
 20
6.078308671858687
 10
11.77817597568695
 20
6.078307233267992
 10
11.56602437629838
 20
6.078307176138561
 10
11.35244852512977
 20
6.078308585199938
 10
11.13755239763978
 20
6.078311545181663
 10
10.92143996928709
 20
6.078316140813276
 10
10.73352501231826
 20
6.078318652273003
 10
10.54475926082942
 20
6.078308729752839
  0
LWPOLYLINE
  5
CC
330
1F
100
AcDbEntity
  8
0
  6
CONTINUOUS
 62
     7
100
AcDbPolyline
 90
       17
 70
   128
 43
0.0
 10
10.54475926082943
 20
6.07830872975284
 10
10.30971048700874
 20
6.078300274829162
 10
10.07393406730365
 20
6.07830857562881
 10
9.837463202087844
 20
6.078314546456043
 10
9.600331283934316
 20
6.07831511373331
 10
9.302083506124489
 20
6.078312337900617
 10
9.002881732654161
 20
6.078310197619718
 10
8.702825617166649
 20
6.078309303841202
 10
8.402014813305266
 20
6.078310267515661
 10
8.099404636166546
 20
6.078311790043694
 10
7.796101784924126
 20
6.078312232410993
 10
7.492207955606962
 20
6.078311717392139
 10
7.187824844244001
 20
6.07831036776172
 10
6.94032573276237
 20
6.07831316217059
 10
6.692544670890621
 20
6.078319108867154
 10
6.444536412140405
 20
6.078320348328234
 10
6.196355710023367
 20
6.078309021030645
  0
LINE
  5
CD
330
1F
100
AcDbEntity
  8
0
  6
CONTINUOUS
 62
     7
100
AcDbLine
 10
6.196355710023365
 20
5.728309752568032
 30
0.0
 11
2.986295068377787
 21
5.728309752568032
 31
0.0
  0
LINE
  5
CE
330
1F
100
AcDbEntity
  8
0
  6
CONTINUOUS
 62
     7
100
AcDbLine
 10
2.986295068377788
 20
6.078313756555461
 30
0.0
 11
2.986295068377787
 21
5.728309752568032
 31
0.0
  0
LINE
  5
CF
330
1F
100
AcDbEntity
  8
0
  6
CONTINUOUS
 62
     7
100
AcDbLine
 10
10.54475926079138
 20
5.728309752568032
 30
0.0
 11
6.196355710023365
 21
5.728309752568032
 31
0.0
  0
LWPOLYLINE
  5
D0
330
1F
100
AcDbEntity
  8
0
  6
CONTINUOUS
 62
     7
100
AcDbPolyline
 90
       46
 70
   128
 43
0.0
 10
5.710001957587296
 20
1.740510567888601
 10
5.75047496837561
 20
1.739693525741566
 10
5.795423685872284
 20
1.738827892883972
 10
5.844724137684139
 20
1.737914868613366
 10
5.898252351417998
 20
1.736955652227297
 10
5.945462010358914
 20
1.736131092203208
 10
5.995491130747758
 20
1.735274511266641
 10
6.048245966453493
 20
1.734386725900044
 10
6.103632771345065
 20
1.733468552585859
 10
6.161557799291431
 20
1.732520807806531
 10
6.235407348263887
 20
1.731327509233645
 10
6.31291530185609
 20
1.730089270861888
 10
6.393874569598914
 20
1.728807809327985
 10
6.478078061023224
 20
1.727484841268662
 10
6.549758400228427
 20
1.726364606408502
 10
6.623565560532843
 20
1.725215285976459
 10
6.699366989509333
 20
1.724037951991705
 10
6.777030134730751
 20
1.722833676473411
 10
6.856422443769955
 20
1.721603531440747
 10
6.955785710738769
 20
1.720063713451964
 10
7.057606499106654
 20
1.718483703720049
 10
7.161619619486672
 20
1.71686563118986
 10
7.267559882491888
 20
1.715211624806254
 10
7.356112835033476
 20
1.713823263008138
 10
7.445881489584698
 20
1.712409422302167
 10
7.536709368700038
 20
1.710971378410009
 10
7.628439994933974
 20
1.709510407053331
 10
7.720916890840989
 20
1.7080277839538
 10
7.835166910789574
 20
1.706181076702948
 10
7.95039494869037
 20
1.704300053537535
 10
8.066305162088672
 20
1.702387223934743
 10
8.182601708529787
 20
1.700445097371754
 10
8.278511728291437
 20
1.698824558668256
 10
8.374587819843256
 20
1.697182806587408
 10
8.47066496111246
 20
1.695521327203839
 10
8.566578130026272
 20
1.693841606592178
 10
8.662162304511902
 20
1.692145130827053
 10
8.766682471699645
 20
1.690258694840236
 10
8.870709993748477
 20
1.688353357965993
 10
8.974364212858112
 20
1.686440781847098
 10
9.077764471228261
 20
1.684532628126324
 10
9.284856280586524
 20
1.680736258154266
 10
9.491449322857414
 20
1.676988898845218
 10
9.767200631709368
 20
1.67206701636771
 10
10.04198415695443
 20
1.667303673638363
 10
10.31572218983715
 20
1.662766690221119
  0
LINE
  5
D1
330
1F
100
AcDbEntity
  8
0
  6
CONTINUOUS
 62
     7
100
AcDbLine
 10
14.53723147121231
 20
5.728309752568032
 30
0.0
 11
10.54475926079138
 21
5.728309752568032
 31
0.0
  0
LWPOLYLINE
  5
D2
330
1F
100
AcDbEntity
  8
0
  6
CONTINUOUS
 62
     7
100
AcDbPolyline
 90
       33
 70
   128
 43
0.0
 10
14.03303163227186
 20
1.683048385838647
 10
14.12525649564644
 20
1.68506498414712
 10
14.21592516820016
 20
1.687077500518659
 10
14.30496879803194
 20
1.689084870687898
 10
14.39276589372864
 20
1.691096371840783
 10
14.47885019900491
 20
1.693102134876371
 10
14.56314992345189
 20
1.695101103981682
 10
14.64683594379935
 20
1.697122471113616
 10
14.72861954877
 20
1.699136542310155
 10
14.80843497269105
 20
1.701142357446585
 10
14.88662794354894
 20
1.703149649011326
 10
14.9627625081525
 20
1.705148272929582
 10
15.03677508857868
 20
1.70713728601068
 10
15.11230299390883
 20
1.709218967857999
 10
15.18540957710417
 20
1.711289574368401
 10
15.2562184912632
 20
1.713353717042088
 10
15.32449873817191
 20
1.715405825080402
 10
15.39068845681091
 20
1.7174607144204
 10
15.4542320915423
 20
1.719502664163721
 10
15.51524148675134
 20
1.721536395747055
 10
15.57351376698328
 20
1.723556366106941
 10
15.60738236518105
 20
1.724773185448147
 10
15.63904667401629
 20
1.725969035879661
 10
15.66780160634989
 20
1.727138782572193
 10
15.69348896013912
 20
1.728275645307161
 10
15.71648715076066
 20
1.729400825240564
 10
15.73619510642371
 20
1.730489731763502
 10
15.75268759475524
 20
1.731549563293663
 10
15.76576504636093
 20
1.732570659708566
 10
15.77513900499006
 20
1.733520854661435
 10
15.78127413079316
 20
1.734433228682683
 10
15.78417019398623
 20
1.735323132351975
 10
15.78400620875981
 20
1.735608987254462
  0
ARC
  5
D3
330
1F
100
AcDbEntity
  8
0
  6
CONTINUOUS
 62
     7
100
AcDbCircle
 10
5.73159957655088
 20
5.396529475308161
 30
0.0
 40
3.656082699906309
100
AcDbArc
 50
267.2056808027031
 51
269.6615340207217
  0
LWPOLYLINE
  5
D4
330
1F
100
AcDbEntity
  8
0
  6
CONTINUOUS
 62
     7
100
AcDbPolyline
 90
       24
 70
   128
 43
0.0
 10
10.31572218983716
 20
1.66276669022112
 10
10.52292526450316
 20
1.65951068750596
 10
10.72915698339292
 20
1.656476476540248
 10
10.934280214801
 20
1.653747101486889
 10
11.13864331794897
 20
1.651428487041849
 10
11.34175892006626
 20
1.649664516762591
 10
11.54397213849477
 20
1.648600663135883
 10
11.74479966696769
 20
1.648355162909286
 10
11.94424090875813
 20
1.648958624177633
 10
12.08062327875249
 20
1.649834776305619
 10
12.21622444493625
 20
1.651038196744164
 10
12.3511082360174
 20
1.652521351400493
 10
12.48516322758725
 20
1.654235871922153
 10
12.61854056972858
 20
1.6561404845725
 10
12.75104334415788
 20
1.658197847254991
 10
12.88273481946398
 20
1.660378768746479
 10
13.01350644594734
 20
1.662659124804015
 10
13.20935818232793
 20
1.666252613625784
 10
13.40305380433495
 20
1.669982853428833
 10
13.53106361345213
 20
1.672530531918811
 10
13.65804917270385
 20
1.675115732175436
 10
13.78411397613685
 20
1.677734876796976
 10
13.90910876740364
 20
1.680380334930156
 10
14.03303163227186
 20
1.683048385838646
  0
LINE
  5
D5
330
1F
100
AcDbEntity
  8
0
  6
CONTINUOUS
 62
     7
100
AcDbLine
 10
11.88079613830322
 20
1.639522549076247
 30
0.0
 11
10.75891654746959
 21
1.639522549076247
 31
0.0
  0
LWPOLYLINE
  5
D6
330
1F
100
AcDbEntity
  8
0
  6
CONTINUOUS
 62
     7
100
AcDbPolyline
 90
       49
 70
   128
 43
0.0
 10
11.97826081577576
 20
5.526468795598153
 10
11.976072051428
 20
5.497849016768261
 10
11.97245849536815
 20
5.476242338591946
 10
11.96719320636854
 20
5.454989196499194
 10
11.96260791441982
 20
5.440595529871687
 10
11.95183180764449
 20
5.414100739444357
 10
11.9418605059098
 20
5.394804428334937
 10
11.93044957447009
 20
5.376439586600292
 10
11.92176612957824
 20
5.364368952187634
 10
11.90358836665955
 20
5.342986760885704
 10
11.88835685584107
 20
5.328177322710589
 10
11.87205710837639
 20
5.314772972651599
 10
11.86023254072883
 20
5.306387630128455
 10
11.83666232601105
 20
5.292537534487223
 10
11.81187376426625
 20
5.281545245418406
 10
11.79847656098146
 20
5.276966464626569
 10
11.78482444283754
 20
5.273216940057621
 10
11.75849191894655
 20
5.268469853491692
 10
11.73821661396568
 20
5.266968410576017
 10
11.7179279536181
 20
5.267307599558647
 10
11.70398179942361
 20
5.26861895549413
 10
11.67784469050907
 20
5.273508526033066
 10
11.65838211955091
 20
5.279318182490051
 10
11.63947411223909
 20
5.286879845845398
 10
11.62680995068791
 20
5.29310089566975
 10
11.60382113182008
 20
5.307072386933799
 10
11.58737496831358
 20
5.319535477842189
 10
11.57199255777027
 20
5.333464684972854
 10
11.56204916422077
 20
5.34389258377611
 10
11.5448303896677
 20
5.365369885587797
 10
11.53328047767653
 20
5.383080828546987
 10
11.52318549111572
 20
5.401806896014926
 10
11.51710355269014
 20
5.415266149597973
 10
11.50763882459766
 20
5.441820566013616
 10
11.50231872118958
 20
5.462776556965021
 10
11.49867868231887
 20
5.484181808284724
 10
11.49716268428341
 20
5.49915038009701
 10
11.4965463128102
 20
5.527777618579849
 10
11.49807149588466
 20
5.549608221674784
 10
11.50130737206185
 20
5.571272108651642
 10
11.50453237695308
 20
5.586057530150482
 10
11.51283353251033
 20
5.613531515781118
 10
11.52102623075956
 20
5.633778025912026
 10
11.53076281620558
 20
5.653262068487099
 10
11.5383554005914
 20
5.666200873320592
 10
11.55461918398316
 20
5.68943514775723
 10
11.5685378473701
 20
5.705824297543279
 10
11.58365731313977
 20
5.720941597483957
 10
11.59213282706061
 20
5.728309752568032
  0
ARC
  5
D7
330
1F
100
AcDbEntity
  8
0
  6
CONTINUOUS
 62
     7
100
AcDbCircle
 10
11.71739559833748
 20
5.537015081202509
 30
0.0
 40
0.2610783135558536
100
AcDbArc
 50
357.6849011257173
 51
47.34692933763637
  0
LWPOLYLINE
  5
D8
330
1F
100
AcDbEntity
  8
0
  6
CONTINUOUS
 62
     7
100
AcDbPolyline
 90
       22
 70
   128
 43
0.0
 10
11.9669910525586
 20
5.528500797082058
 10
11.96561487207971
 20
5.506962128287282
 10
11.96260212283903
 20
5.485569403955879
 10
11.95780883729927
 20
5.463863749376236
 10
11.9513384589243
 20
5.442627536911981
 10
11.94348237442008
 20
5.422590529233449
 10
11.93413898979155
 20
5.403281783240751
 10
11.92303262234385
 20
5.384315860768055
 10
11.91049747936269
 20
5.366400877062275
 10
11.89702579154239
 20
5.350124813844722
 10
11.88238000553506
 20
5.335077857720165
 10
11.8661833964805
 20
5.320991254586424
 10
11.84896480600414
 20
5.308419373704584
 10
11.83136607470856
 20
5.297745834865046
 10
11.8130386615556
 20
5.288664043614992
 10
11.79354707797474
 20
5.281052312961953
 10
11.77355731194889
 20
5.275248514861329
 10
11.75379464198743
 20
5.271388146804721
 10
11.73383418062547
 20
5.269301670634194
 10
11.71323127940512
 20
5.269028249437831
 10
11.69271478414368
 20
5.270650468952106
 10
11.68104663598712
 20
5.27265580970962
  0
ARC
  5
D9
330
1F
100
AcDbEntity
  8
0
  6
CONTINUOUS
 62
     7
100
AcDbCircle
 10
11.70671704487598
 20
5.539274341214178
 30
0.0
 40
0.260496887367848
100
AcDbArc
 50
357.6297040536956
 51
46.73450948216106
  0
LINE
  5
DA
330
1F
100
AcDbEntity
  8
0
  6
CONTINUOUS
 62
     7
100
AcDbLine
 10
11.31985631008434
 20
1.476854690536089
 30
0.0
 11
11.57985632648538
 21
1.476854690536089
 31
0.0
  0
LINE
  5
DB
330
1F
100
AcDbEntity
  8
0
  6
CONTINUOUS
 62
     7
100
AcDbLine
 10
11.05985632648538
 20
1.476854690536089
 30
0.0
 11
11.31985631008434
 21
1.476854690536089
 31
0.0
  0
LINE
  5
DC
330
1F
100
AcDbEntity
  8
0
  6
CONTINUOUS
 62
     7
100
AcDbLine
 10
16.98629506837779
 20
6.078309379492075
 30
0.0
 11
16.98629506837779
 21
5.728309752568032
 31
0.0
  0
LINE
  5
DD
330
1F
100
AcDbEntity
  8
0
  6
CONTINUOUS
 62
     7
100
AcDbLine
 10
16.98629506837779
 20
5.728309752568032
 30
0.0
 11
14.53723147121231
 21
5.728309752568032
 31
0.0
  0
LWPOLYLINE
  5
DE
330
1F
100
AcDbEntity
  8
0
  6
CONTINUOUS
 62
     7
100
AcDbPolyline
 90
       10
 70
   128
 43
0.0
 10
3.76215491097077
 20
5.302662276165313
 10
3.804086293507041
 20
5.299429204078926
 10
3.842546581369166
 20
5.296233964059745
 10
3.877543569878588
 20
5.293077863891136
 10
3.90908505435675
 20
5.289962211356449
 10
3.937178830125094
 20
5.286888314239043
 10
3.958069933072579
 20
5.284344984927045
 10
3.976532502270212
 20
5.281831613643062
 10
3.992548356168167
 20
5.279349229935141
 10
4.004863744064818
 20
5.277123862730881
  0
ELLIPSE
  5
DF
330
1F
100
AcDbEntity
  8
0
  6
CONTINUOUS
 62
     7
100
AcDbEllipse
 10
5.184487522371536
 20
5.287263695107402
 30
0.0
 11
1.460905885335847
 21
-0.0206644928638973
 31
0.0
210
0.0
220
0.0
230
1.0
 40
0.0141393071880446
 41
3.143031462549577
 42
3.372099861824356
  0
ENDSEC
  0
SECTION
  2
OBJECTS
  0
DICTIONARY
  5
C
330
0
100
AcDbDictionary
  3
ACAD_GROUP
350
D
  3
ACAD_LAYOUT
350
1A
  3
ACAD_MLINESTYLE
350
17
  3
ACAD_PLOTSETTINGS
350
19
  3
ACAD_PLOTSTYLENAME
350
E
  3
ACDBHEADERROUNDTRIPXREC
350
161
  3
ACDBVARIABLEDICTIONARY
350
15B
  0
DICTIONARY
  5
123
330
1F
100
AcDbDictionary
280
     1
  3
ACAD_LAYOUTSELFREF
360
183
  0
DICTIONARY
  5
125
330
1B
100
AcDbDictionary
280
     1
  3
ACAD_LAYOUTSELFREF
360
182
  0
DICTIONARY
  5
D
102
{ACAD_REACTORS
330
C
102
}
330
C
100
AcDbDictionary
  0
DICTIONARY
  5
1A
102
{ACAD_REACTORS
330
C
102
}
330
C
100
AcDbDictionary
  0
DICTIONARY
  5
17
102
{ACAD_REACTORS
330
C
102
}
330
C
100
AcDbDictionary
  3
STANDARD
350
18
  0
DICTIONARY
  5
19
102
{ACAD_REACTORS
330
C
102
}
330
C
100
AcDbDictionary
  0
ACDBDICTIONARYWDFLT
  5
E
102
{ACAD_REACTORS
330
C
102
}
330
C
100
AcDbDictionary
281
     1
  3
Normal
350
F
100
AcDbDictionaryWithDefault
340
F
  0
DICTIONARY
  5
161
102
{ACAD_REACTORS
330
C
102
}
330
C
100
AcDbDictionary
  3
CEPSNTYPE
350
16B
  3
DIMSTYLEDATA
350
16F
  3
FINGERPRINTGUID
350
16C
  3
HYPERLINKBASE
350
164
  3
INSUNITS
350
16A
  3
LAYOUTDICT
350
166
  3
LWETCUNION
350
169
  3
PLOTSETDICT
350
167
  3
PLOTSTYLNAMDICT
350
168
  3
PSVPSCALE
350
16E
  3
PUCSBASE
350
172
  3
PUCSORGBACK
350
178
  3
PUCSORGBOTTOM
350
174
  3
PUCSORGFRONT
350
177
  3
PUCSORGLEFT
350
175
  3
PUCSORGRIGHT
350
176
  3
PUCSORGTOP
350
173
  3
PUCSORTHOREF
350
170
  3
PUCSORTHOVIEW
350
171
  3
STYLESHEET
350
165
  3
TSTACKALIGN
350
162
  3
TSTACKSIZE
350
163
  3
UCSBASE
350
17B
  3
UCSORGBACK
350
181
  3
UCSORGBOTTOM
350
17D
  3
UCSORGFRONT
350
180
  3
UCSORGLEFT
350
17E
  3
UCSORGRIGHT
350
17F
  3
UCSORGTOP
350
17C
  3
UCSORTHOREF
350
179
  3
UCSORTHOVIEW
350
17A
  3
VERSIONGUID
350
16D
  0
DICTIONARY
  5
15B
102
{ACAD_REACTORS
330
C
102
}
330
C
100
AcDbDictionary
  3
DIMASSOC
350
15C
  0
XRECORD
  5
183
102
{ACAD_REACTORS
330
123
102
}
330
123
100
AcDbXrecord
340
1F
  0
XRECORD
  5
182
102
{ACAD_REACTORS
330
125
102
}
330
125
100
AcDbXrecord
340
1B
  0
MLINESTYLE
  5
18
102
{ACAD_REACTORS
330
17
102
}
330
17
100
AcDbMlineStyle
  2
STANDARD
 70
     0
  3

 62
   256
 51
90.0
 52
90.0
 71
     2
 49
0.5
 62
   256
  6
BYLAYER
 49
-0.5
 62
   256
  6
BYLAYER
  0
ACDBPLACEHOLDER
  5
F
102
{ACAD_REACTORS
330
E
102
}
330
E
100
AcDbPlaceHolder
280
     0
  0
XRECORD
  5
16B
102
{ACAD_REACTORS
330
161
102
}
330
161
100
AcDbXrecord
 90
        0
  0
XRECORD
  5
16F
102
{ACAD_REACTORS
330
161
102
}
330
161
100
AcDbXrecord
1000
DSTYLE
1002
{
1070
   278
 70
    44
1002
}
  0
XRECORD
  5
16C
102
{ACAD_REACTORS
330
161
102
}
330
161
100
AcDbXrecord
  1
{982E84DD-1BFB-4E8F-A598-869CA60258C1}
  0
XRECORD
  5
164
102
{ACAD_REACTORS
330
161
102
}
330
161
100
AcDbXrecord
  1

  0
XRECORD
  5
16A
102
{ACAD_REACTORS
330
161
102
}
330
161
100
AcDbXrecord
 90
        4
  0
XRECORD
  5
166
102
{ACAD_REACTORS
330
161
102
}
330
161
100
AcDbXrecord
340
1A
  0
XRECORD
  5
169
102
{ACAD_REACTORS
330
161
102
}
330
161
100
AcDbXrecord
 90
    10781
  0
XRECORD
  5
167
102
{ACAD_REACTORS
330
161
102
}
330
161
100
AcDbXrecord
340
19
  0
XRECORD
  5
168
102
{ACAD_REACTORS
330
161
102
}
330
161
100
AcDbXrecord
340
E
  0
XRECORD
  5
16E
102
{ACAD_REACTORS
330
161
102
}
330
161
100
AcDbXrecord
 40
0.0
  0
XRECORD
  5
172
102
{ACAD_REACTORS
330
161
102
}
330
161
100
AcDbXrecord
340
0
  0
XRECORD
  5
178
102
{ACAD_REACTORS
330
161
102
}
330
161
100
AcDbXrecord
 10
0.0
 20
0.0
 30
0.0
  0
XRECORD
  5
174
102
{ACAD_REACTORS
330
161
102
}
330
161
100
AcDbXrecord
 10
0.0
 20
0.0
 30
0.0
  0
XRECORD
  5
177
102
{ACAD_REACTORS
330
161
102
}
330
161
100
AcDbXrecord
 10
0.0
 20
0.0
 30
0.0
  0
XRECORD
  5
175
102
{ACAD_REACTORS
330
161
102
}
330
161
100
AcDbXrecord
 10
0.0
 20
0.0
 30
0.0
  0
XRECORD
  5
176
102
{ACAD_REACTORS
330
161
102
}
330
161
100
AcDbXrecord
 10
0.0
 20
0.0
 30
0.0
  0
XRECORD
  5
173
102
{ACAD_REACTORS
330
161
102
}
330
161
100
AcDbXrecord
 10
0.0
 20
0.0
 30
0.0
  0
XRECORD
  5
170
102
{ACAD_REACTORS
330
161
102
}
330
161
100
AcDbXrecord
340
0
  0
XRECORD
  5
171
102
{ACAD_REACTORS
330
161
102
}
330
161
100
AcDbXrecord
 70
     0
  0
XRECORD
  5
165
102
{ACAD_REACTORS
330
161
102
}
330
161
100
AcDbXrecord
  1

  0
XRECORD
  5
162
102
{ACAD_REACTORS
330
161
102
}
330
161
100
AcDbXrecord
 90
        1
  0
XRECORD
  5
163
102
{ACAD_REACTORS
330
161
102
}
330
161
100
AcDbXrecord
 90
       70
  0
XRECORD
  5
17B
102
{ACAD_REACTORS
330
161
102
}
330
161
100
AcDbXrecord
340
0
  0
XRECORD
  5
181
102
{ACAD_REACTORS
330
161
102
}
330
161
100
AcDbXrecord
 10
0.0
 20
0.0
 30
0.0
  0
XRECORD
  5
17D
102
{ACAD_REACTORS
330
161
102
}
330
161
100
AcDbXrecord
 10
0.0
 20
0.0
 30
0.0
  0
XRECORD
  5
180
102
{ACAD_REACTORS
330
161
102
}
330
161
100
AcDbXrecord
 10
0.0
 20
0.0
 30
0.0
  0
XRECORD
  5
17E
102
{ACAD_REACTORS
330
161
102
}
330
161
100
AcDbXrecord
 10
0.0
 20
0.0
 30
0.0
  0
XRECORD
  5
17F
102
{ACAD_REACTORS
330
161
102
}
330
161
100
AcDbXrecord
 10
0.0
 20
0.0
 30
0.0
  0
XRECORD
  5
17C
102
{ACAD_REACTORS
330
161
102
}
330
161
100
AcDbXrecord
 10
0.0
 20
0.0
 30
0.0
  0
XRECORD
  5
179
102
{ACAD_REACTORS
330
161
102
}
330
161
100
AcDbXrecord
340
0
  0
XRECORD
  5
17A
102
{ACAD_REACTORS
330
161
102
}
330
161
100
AcDbXrecord
 70
     0
  0
XRECORD
  5
16D
102
{ACAD_REACTORS
330
161
102
}
330
161
100
AcDbXrecord
  1
{9D329FEB-62C0-4C3C-9715-EB8AA1CA9FBC}
  0
DICTIONARYVAR
  5
15C
102
{ACAD_REACTORS
330
15B
102
}
330
15B
100
DictionaryVariables
280
     0
  1
1
  0
ENDSEC
  0
EOF
