  0
SECTION
  2
HEADER
  9
$ACADVER
  1
AC1014
  9
$ACADMAINTVER
 70
     9
  9
$DWGCODEPAGE
  3
ANSI_1250
  9
$INSBASE
 10
0.0
 20
0.0
 30
0.0
  9
$EXTMIN
 10
2.936379199830497
 20
4.400620288175288
 30
0.0
  9
$EXTMAX
 10
14.26971285105526
 20
16.54239860167461
 30
0.0
  9
$LIMMIN
 10
0.0
 20
0.0
  9
$LIMMAX
 10
0.0
 20
0.0
  9
$ORTHOMODE
 70
     0
  9
$REGENMODE
 70
     1
  9
$FILLMODE
 70
     1
  9
$QTEXTMODE
 70
     0
  9
$MIRRTEXT
 70
     1
  9
$DRAGMODE
 70
     2
  9
$LTSCALE
 40
1.0
  9
$OSMODE
 70
  3007
  9
$ATTMODE
 70
     1
  9
$TEXTSIZE
 40
2.5
  9
$TRACEWID
 40
1.0
  9
$TEXTSTYLE
  7
STANDARD
  9
$CLAYER
  8
0
  9
$CELTYPE
  6
BYLAYER
  9
$CECOLOR
 62
   256
  9
$CELTSCALE
 40
1.0
  9
$DELOBJ
 70
     1
  9
$DISPSILH
 70
     0
  9
$DIMSCALE
 40
1.0
  9
$DIMASZ
 40
0.3
  9
$DIMEXO
 40
0.1
  9
$DIMDLI
 40
3.75
  9
$DIMRND
 40
0.0
  9
$DIMDLE
 40
0.0
  9
$DIMEXE
 40
0.1
  9
$DIMTP
 40
0.0
  9
$DIMTM
 40
0.0
  9
$DIMTXT
 40
0.2822222222222222
  9
$DIMCEN
 40
2.5
  9
$DIMTSZ
 40
0.0
  9
$DIMTOL
 70
     0
  9
$DIMLIM
 70
     0
  9
$DIMTIH
 70
     1
  9
$DIMTOH
 70
     1
  9
$DIMSE1
 70
     0
  9
$DIMSE2
 70
     0
  9
$DIMTAD
 70
     1
  9
$DIMZIN
 70
     0
  9
$DIMBLK
  1

  9
$DIMASO
 70
     1
  9
$DIMSHO
 70
     1
  9
$DIMPOST
  1

  9
$DIMAPOST
  1

  9
$DIMALT
 70
     0
  9
$DIMALTD
 70
     3
  9
$DIMALTF
 40
0.3937007874015748
  9
$DIMLFAC
 40
15.0
  9
$DIMTOFL
 70
     1
  9
$DIMTVP
 40
0.0
  9
$DIMTIX
 70
     0
  9
$DIMSOXD
 70
     0
  9
$DIMSAH
 70
     0
  9
$DIMBLK1
  1

  9
$DIMBLK2
  1

  9
$DIMSTYLE
  2
ISO-25
  9
$DIMCLRD
 70
     0
  9
$DIMCLRE
 70
     0
  9
$DIMCLRT
 70
     0
  9
$DIMTFAC
 40
1.0
  9
$DIMGAP
 40
0.1524
  9
$DIMJUST
 70
     0
  9
$DIMSD1
 70
     0
  9
$DIMSD2
 70
     0
  9
$DIMTOLJ
 70
     0
  9
$DIMTZIN
 70
     0
  9
$DIMALTZ
 70
     0
  9
$DIMALTTZ
 70
     0
  9
$DIMFIT
 70
     3
  9
$DIMUPT
 70
     0
  9
$DIMUNIT
 70
     2
  9
$DIMDEC
 70
     2
  9
$DIMTDEC
 70
     2
  9
$DIMALTU
 70
     2
  9
$DIMALTTD
 70
     3
  9
$DIMTXSTY
  7
STANDARD
  9
$DIMAUNIT
 70
     0
  9
$LUNITS
 70
     2
  9
$LUPREC
 70
     2
  9
$SKETCHINC
 40
1.0
  9
$FILLETRAD
 40
10.0
  9
$AUNITS
 70
     0
  9
$AUPREC
 70
     0
  9
$MENU
  1
.
  9
$ELEVATION
 40
0.0
  9
$PELEVATION
 40
0.0
  9
$THICKNESS
 40
0.0
  9
$LIMCHECK
 70
     0
  9
$BLIPMODE
 70
     0
  9
$CHAMFERA
 40
10.0
  9
$CHAMFERB
 40
10.0
  9
$CHAMFERC
 40
20.0
  9
$CHAMFERD
 40
0.0
  9
$SKPOLY
 70
     0
  9
$TDCREATE
 40
2453964.552619988
  9
$TDUPDATE
 40
2453966.376540798
  9
$TDINDWG
 40
0.0175490162
  9
$TDUSRTIMER
 40
0.0175490162
  9
$USRTIMER
 70
     1
  9
$ANGBASE
 50
0.0
  9
$ANGDIR
 70
     0
  9
$PDMODE
 70
     0
  9
$PDSIZE
 40
-1.0
  9
$PLINEWID
 40
0.0
  9
$COORDS
 70
     2
  9
$SPLFRAME
 70
     0
  9
$SPLINETYPE
 70
     6
  9
$SPLINESEGS
 70
     8
  9
$ATTDIA
 70
     0
  9
$ATTREQ
 70
     1
  9
$HANDLING
 70
 22529
  9
$HANDSEED
  5
136
  9
$SURFTAB1
 70
     6
  9
$SURFTAB2
 70
     6
  9
$SURFTYPE
 70
     6
  9
$SURFU
 70
     6
  9
$SURFV
 70
     6
  9
$UCSNAME
  2

  9
$UCSORG
 10
0.0
 20
0.0
 30
0.0
  9
$UCSXDIR
 10
1.0
 20
0.0
 30
0.0
  9
$UCSYDIR
 10
0.0
 20
1.0
 30
0.0
  9
$PUCSNAME
  2

  9
$PUCSORG
 10
0.0
 20
0.0
 30
0.0
  9
$PUCSXDIR
 10
1.0
 20
0.0
 30
0.0
  9
$PUCSYDIR
 10
0.0
 20
1.0
 30
0.0
  9
$USERI1
 70
     0
  9
$USERI2
 70
     0
  9
$USERI3
 70
     0
  9
$USERI4
 70
     0
  9
$USERI5
 70
     0
  9
$USERR1
 40
0.0
  9
$USERR2
 40
0.0
  9
$USERR3
 40
0.0
  9
$USERR4
 40
0.0
  9
$USERR5
 40
0.0
  9
$WORLDVIEW
 70
     1
  9
$SHADEDGE
 70
     3
  9
$SHADEDIF
 70
    70
  9
$TILEMODE
 70
     1
  9
$MAXACTVP
 70
    48
  9
$PINSBASE
 10
0.0
 20
0.0
 30
0.0
  9
$PLIMCHECK
 70
     0
  9
$PEXTMIN
 10
1.000000000000000E+20
 20
1.000000000000000E+20
 30
1.000000000000000E+20
  9
$PEXTMAX
 10
-1.000000000000000E+20
 20
-1.000000000000000E+20
 30
-1.000000000000000E+20
  9
$PLIMMIN
 10
0.0
 20
0.0
  9
$PLIMMAX
 10
420.0
 20
297.0
  9
$UNITMODE
 70
     0
  9
$VISRETAIN
 70
     1
  9
$PLINEGEN
 70
     0
  9
$PSLTSCALE
 70
     1
  9
$TREEDEPTH
 70
  3020
  9
$PICKSTYLE
 70
     1
  9
$CMLSTYLE
  2
STANDARD
  9
$CMLJUST
 70
     0
  9
$CMLSCALE
 40
20.0
  9
$PROXYGRAPHICS
 70
     1
  9
$MEASUREMENT
 70
     1
  0
ENDSEC
  0
SECTION
  2
CLASSES
  0
CLASS
  1
ACDBDICTIONARYWDFLT
  2
AcDbDictionaryWithDefault
  3
AutoCAD 2000
 90
        0
280
     0
281
     0
  0
CLASS
  1
ACDBPLACEHOLDER
  2
AcDbPlaceHolder
  3
AutoCAD 2000
 90
        0
280
     0
281
     0
  0
CLASS
  1
LAYOUT
  2
AcDbLayout
  3
AutoCAD 2000
 90
        0
280
     0
281
     0
  0
CLASS
  1
DICTIONARYVAR
  2
AcDbDictionaryVar
  3
AutoCAD 2000
 90
        0
280
     0
281
     0
  0
CLASS
  1
LONG_TRANSACTION
  2
AcDbLongTransaction
  3
AutoCAD 2000
 90
        0
280
     0
281
     0
  0
CLASS
  1
LWPOLYLINE
  2
AcDbPolyline
  3
AutoCAD 2000
 90
        0
280
     0
281
     1
  0
CLASS
  1
HATCH
  2
AcDbHatch
  3
AutoCAD 2000
 90
        0
280
     0
281
     1
  0
CLASS
  1
XRECORD
  2
AcDbXrecord
  3
AutoCAD 2000
 90
        0
280
     0
281
     0
  0
CLASS
  1
LONG_TRANSACTION
  2
AcDbLongTransaction
  3
AutoCAD 2000
 90
        0
280
     0
281
     0
  0
CLASS
  1
LWPOLYLINE
  2
AcDbPolyline
  3
AutoCAD 2000
 90
        0
280
     0
281
     1
  0
CLASS
  1
HATCH
  2
AcDbHatch
  3
AutoCAD 2000
 90
        0
280
     0
281
     1
  0
CLASS
  1
XRECORD
  2
AcDbXrecord
  3
AutoCAD 2000
 90
        0
280
     0
281
     0
  0
ENDSEC
  0
SECTION
  2
TABLES
  0
TABLE
  2
VPORT
  5
8
330
0
100
AcDbSymbolTable
 70
     2
  0
VPORT
  5
111
330
8
100
AcDbSymbolTableRecord
100
AcDbViewportTableRecord
  2
*ACTIVE
 70
     0
 10
0.0
 20
0.0
 11
1.0
 21
1.0
 12
8.602830567249137
 22
10.47196202395945
 13
0.0
 23
0.0
 14
10.0
 24
10.0
 15
10.0
 25
10.0
 16
0.0
 26
0.0
 36
1.0
 17
0.0
 27
0.0
 37
0.0
 40
12.26170252869413
 41
1.674961119751166
 42
50.0
 43
0.0
 44
0.0
 50
0.0
 51
0.0
 71
     0
 72
  2000
 73
     1
 74
     3
 75
     0
 76
     0
 77
     0
 78
     0
  0
ENDTAB
  0
TABLE
  2
LTYPE
  5
5
330
0
100
AcDbSymbolTable
 70
     1
  0
LTYPE
  5
14
330
5
100
AcDbSymbolTableRecord
100
AcDbLinetypeTableRecord
  2
BYBLOCK
 70
     0
  3

 72
    65
 73
     0
 40
0.0
  0
LTYPE
  5
15
330
5
100
AcDbSymbolTableRecord
100
AcDbLinetypeTableRecord
  2
BYLAYER
 70
     0
  3

 72
    65
 73
     0
 40
0.0
  0
LTYPE
  5
16
330
5
100
AcDbSymbolTableRecord
100
AcDbLinetypeTableRecord
  2
CONTINUOUS
 70
     0
  3
Solid line
 72
    65
 73
     0
 40
0.0
  0
ENDTAB
  0
TABLE
  2
LAYER
  5
2
330
0
100
AcDbSymbolTable
 70
     1
  0
LAYER
  5
10
330
2
100
AcDbSymbolTableRecord
100
AcDbLayerTableRecord
  2
0
 70
     0
 62
     7
  6
CONTINUOUS
  0
ENDTAB
  0
TABLE
  2
STYLE
  5
3
330
0
100
AcDbSymbolTable
 70
     1
  0
STYLE
  5
11
330
3
100
AcDbSymbolTableRecord
100
AcDbTextStyleTableRecord
  2
STANDARD
 70
     0
 40
0.0
 41
1.0
 50
0.0
 71
     0
 42
2.5
  3
ARIAL.TTF
  4

1001
ACAD
1000
Arial
1071
       34
  0
ENDTAB
  0
TABLE
  2
VIEW
  5
6
330
0
100
AcDbSymbolTable
 70
     0
  0
ENDTAB
  0
TABLE
  2
UCS
  5
7
330
0
100
AcDbSymbolTable
 70
     0
  0
ENDTAB
  0
TABLE
  2
APPID
  5
9
330
0
100
AcDbSymbolTable
 70
     1
  0
APPID
  5
12
330
9
100
AcDbSymbolTableRecord
100
AcDbRegAppTableRecord
  2
ACAD
 70
     0
  0
ENDTAB
  0
TABLE
  2
DIMSTYLE
  5
A
330
0
100
AcDbSymbolTable
 70
     1
  0
DIMSTYLE
105
27
330
A
100
AcDbSymbolTableRecord
100
AcDbDimStyleTableRecord
  2
ISO-25
 70
     0
  3

  4

  5

  6

  7

 40
1.0
 41
2.5
 42
0.625
 43
3.75
 44
1.25
 45
0.0
 46
0.0
 47
0.0
 48
0.0
140
2.5
141
2.5
142
0.0
143
0.03937007874016
144
1.0
145
0.0
146
1.0
147
0.625
 71
     0
 72
     0
 73
     0
 74
     0
 75
     0
 76
     0
 77
     1
 78
     8
170
     0
171
     3
172
     1
173
     0
174
     0
175
     0
176
     0
177
     0
178
     0
270
     2
271
     2
272
     2
273
     2
274
     3
340
11
275
     0
280
     0
281
     0
282
     0
283
     0
284
     8
285
     0
286
     0
287
     3
288
     0
  0
ENDTAB
  0
TABLE
  2
BLOCK_RECORD
  5
1
330
0
100
AcDbSymbolTable
 70
     1
  0
BLOCK_RECORD
  5
1F
102
{ACAD_XDICTIONARY
360
D4
102
}
330
1
100
AcDbSymbolTableRecord
100
AcDbBlockTableRecord
  2
*MODEL_SPACE
  0
BLOCK_RECORD
  5
1B
102
{ACAD_XDICTIONARY
360
D6
102
}
330
1
100
AcDbSymbolTableRecord
100
AcDbBlockTableRecord
  2
*PAPER_SPACE
  0
ENDTAB
  0
ENDSEC
  0
SECTION
  2
BLOCKS
  0
BLOCK
  5
20
330
1F
100
AcDbEntity
  8
0
100
AcDbBlockBegin
  2
*MODEL_SPACE
 70
     0
 10
0.0
 20
0.0
 30
0.0
  3
*MODEL_SPACE
  1

  0
ENDBLK
  5
21
330
1F
100
AcDbEntity
  8
0
100
AcDbBlockEnd
  0
BLOCK
  5
1C
330
1B
100
AcDbEntity
 67
     1
  8
0
100
AcDbBlockBegin
  2
*PAPER_SPACE
 70
     0
 10
0.0
 20
0.0
 30
0.0
  3
*PAPER_SPACE
  1

  0
ENDBLK
  5
1D
330
1B
100
AcDbEntity
 67
     1
  8
0
100
AcDbBlockEnd
  0
ENDSEC
  0
SECTION
  2
ENTITIES
  0
LINE
  5
9C
330
1F
100
AcDbEntity
  8
0
  6
CONTINUOUS
 62
     7
100
AcDbLine
 10
3.634052759019339
 20
12.07700776050843
 30
0.0
 11
13.57203929186642
 21
12.07700776050843
 31
0.0
  0
LINE
  5
9D
330
1F
100
AcDbEntity
  8
0
  6
CONTINUOUS
 62
     7
100
AcDbLine
 10
2.936379199830497
 20
11.54239860167461
 30
0.0
 11
14.26971285105526
 21
11.54239860167461
 31
0.0
  0
LINE
  5
9E
330
1F
100
AcDbEntity
  8
0
  6
CONTINUOUS
 62
     7
100
AcDbLine
 10
3.474733517177705
 20
15.83993263036368
 30
0.0
 11
3.474733517177705
 21
12.24486457298554
 31
0.0
  0
LINE
  5
9F
330
1F
100
AcDbEntity
  8
0
  6
CONTINUOUS
 62
     7
100
AcDbLine
 10
2.936379199830497
 20
16.54239860167461
 30
0.0
 11
2.936379199830497
 21
11.54239860167461
 31
0.0
  0
LWPOLYLINE
  5
A0
330
1F
100
AcDbEntity
  8
0
  6
CONTINUOUS
 62
     7
100
AcDbPolyline
 90
        3
 70
   128
 43
0.0
 10
3.474733517177705
 20
12.24486457298554
 10
3.47462344726702
 20
12.14849836618063
 10
3.474379862952038
 20
12.07692630082724
  0
LWPOLYLINE
  5
A1
330
1F
100
AcDbEntity
  8
0
  6
CONTINUOUS
 62
     7
100
AcDbPolyline
 90
        3
 70
   128
 43
0.0
 10
3.474379862952038
 20
12.07692630082724
 10
3.52107652585487
 20
12.07696862012503
 10
3.634052759019339
 20
12.07700776050843
  0
LINE
  5
A2
330
1F
100
AcDbEntity
  8
0
  6
CONTINUOUS
 62
     7
100
AcDbLine
 10
13.57203929186642
 20
16.00778944284079
 30
0.0
 11
3.634052759019339
 21
16.00778944284079
 31
0.0
  0
LINE
  5
A3
330
1F
100
AcDbEntity
  8
0
  6
CONTINUOUS
 62
     7
100
AcDbLine
 10
14.26971285105526
 20
16.54239860167461
 30
0.0
 11
2.936379199830497
 21
16.54239860167461
 31
0.0
  0
LWPOLYLINE
  5
A4
330
1F
100
AcDbEntity
  8
0
  6
CONTINUOUS
 62
     7
100
AcDbPolyline
 90
        3
 70
   128
 43
0.0
 10
3.474379862952038
 20
16.00787090252198
 10
3.47462344726702
 20
15.93630300949372
 10
3.474733517177705
 20
15.83993263036368
  0
LWPOLYLINE
  5
A5
330
1F
100
AcDbEntity
  8
0
  6
CONTINUOUS
 62
     7
100
AcDbPolyline
 90
        3
 70
   128
 43
0.0
 10
3.634052759019339
 20
16.00778944284079
 10
3.521082883683646
 20
16.00782858322419
 10
3.474379862952038
 20
16.00787090252198
  0
LWPOLYLINE
  5
A6
330
1F
100
AcDbEntity
  8
0
  6
CONTINUOUS
 62
     7
100
AcDbPolyline
 90
        3
 70
   128
 43
0.0
 10
13.73171218793372
 20
16.00787090252198
 10
13.68501552503089
 20
16.00782858322419
 10
13.57203929186642
 20
16.00778944284079
  0
LWPOLYLINE
  5
A7
330
1F
100
AcDbEntity
  8
0
  6
CONTINUOUS
 62
     7
100
AcDbPolyline
 90
        3
 70
   128
 43
0.0
 10
13.73135853370806
 20
15.83993263036368
 10
13.73146860361874
 20
15.93629883716859
 10
13.73171218793372
 20
16.00787090252198
  0
LINE
  5
A8
330
1F
100
AcDbEntity
  8
0
  6
CONTINUOUS
 62
     7
100
AcDbLine
 10
13.73135853370806
 20
12.24486457298554
 30
0.0
 11
13.73135853370806
 21
15.83993263036368
 31
0.0
  0
LINE
  5
A9
330
1F
100
AcDbEntity
  8
0
  6
CONTINUOUS
 62
     7
100
AcDbLine
 10
14.26971285105526
 20
11.54239860167461
 30
0.0
 11
14.26971285105526
 21
16.54239860167461
 31
0.0
  0
LWPOLYLINE
  5
AA
330
1F
100
AcDbEntity
  8
0
  6
CONTINUOUS
 62
     7
100
AcDbPolyline
 90
        3
 70
   128
 43
0.0
 10
13.57203929186642
 20
12.07700776050843
 10
13.68500916720212
 20
12.07696862012503
 10
13.73171218793372
 20
12.07692630082724
  0
LWPOLYLINE
  5
AB
330
1F
100
AcDbEntity
  8
0
  6
CONTINUOUS
 62
     7
100
AcDbPolyline
 90
        3
 70
   128
 43
0.0
 10
13.73171218793372
 20
12.07692630082724
 10
13.73146860361874
 20
12.1484941938555
 10
13.73135853370806
 20
12.24486457298554
  0
LINE
  5
AC
330
1F
100
AcDbEntity
  8
0
  6
CONTINUOUS
 62
     7
100
AcDbLine
 10
13.73171218793372
 20
16.00787090252198
 30
0.0
 11
12.44165707191607
 21
15.67774123937247
 31
0.0
  0
LWPOLYLINE
  5
AD
330
1F
100
AcDbEntity
  8
0
  6
CONTINUOUS
 62
     7
100
AcDbPolyline
 90
       14
 70
   128
 43
0.0
 10
4.764434978969697
 20
15.67774123937247
 10
5.503006662535473
 20
15.67637738575893
 10
6.24159642617683
 20
15.67514416565852
 10
6.980208442218904
 20
15.67411091914134
 10
7.423428878791932
 20
15.67362782349544
 10
7.866662527727886
 20
15.67327983171103
 10
8.309903453397556
 20
15.67308035483318
 10
8.753145720171733
 20
15.67304310193019
 10
9.196383342750673
 20
15.67318178207037
 10
9.73728297711194
 20
15.67357874900458
 10
10.27817019383887
 20
15.67417559018092
 10
10.81904201269925
 20
15.67492670804617
 10
11.63036037048479
 20
15.67625271271027
 10
12.44165707191607
 20
15.67774123937247
  0
LINE
  5
AE
330
1F
100
AcDbEntity
  8
0
  6
CONTINUOUS
 62
     7
100
AcDbLine
 10
3.474379862952038
 20
16.00787090252198
 30
0.0
 11
4.764434978969697
 21
15.67774123937247
 31
0.0
  0
LINE
  5
AF
330
1F
100
AcDbEntity
  8
0
  6
CONTINUOUS
 62
     7
100
AcDbLine
 10
3.474379862952038
 20
12.07692630082724
 30
0.0
 11
4.770652935512666
 21
12.40864720931011
 31
0.0
  0
LWPOLYLINE
  5
B0
330
1F
100
AcDbEntity
  8
0
  6
CONTINUOUS
 62
     7
100
AcDbPolyline
 90
       17
 70
   128
 43
0.0
 10
12.4354391153731
 20
12.40864720931011
 10
11.47691615979651
 20
12.41078363846101
 10
10.51838446220537
 20
12.4128684102531
 10
10.19886233966331
 20
12.4135648905273
 10
9.879332567858503
 20
12.41425620506562
 10
9.559794153380199
 20
12.41488801430024
 10
9.240246301499809
 20
12.41540597866334
 10
8.920688217488729
 20
12.41575585792817
 10
8.601119000874451
 20
12.41588321318584
 10
8.281888425953988
 20
12.41575277835486
 10
7.962669020501578
 20
12.41540121029176
 10
7.643459921685661
 20
12.41488264988221
 10
7.324260260271832
 20
12.41425103932974
 10
7.005069241531495
 20
12.41356032083787
 10
6.685885673371756
 20
12.41286453595119
 10
5.728264933434927
 20
12.41078155229844
 10
4.770652935512666
 20
12.40864720931011
  0
LINE
  5
B1
330
1F
100
AcDbEntity
  8
0
  6
CONTINUOUS
 62
     7
100
AcDbLine
 10
13.73171218793372
 20
12.07692630082724
 30
0.0
 11
12.4354391153731
 21
12.40864720931011
 31
0.0
  0
LWPOLYLINE
  5
B2
330
1F
100
AcDbEntity
  8
0
  6
CONTINUOUS
 62
     7
100
AcDbPolyline
 90
      104
 70
   128
 43
0.0
 10
8.603046025442882
 20
12.09788647284465
 10
8.613613114054306
 20
12.09792303036012
 10
8.624140893092061
 20
12.09803230554221
 10
8.634590197337473
 20
12.09821409970877
 10
8.644922153386279
 20
12.09846761813121
 10
8.655098330212439
 20
12.09879206608094
 10
8.665080869553291
 20
12.09918605278291
 10
8.674832630264564
 20
12.09964838614421
 10
8.684317343540792
 20
12.10017707934337
 10
8.69349972467403
 20
12.10077014555889
 10
8.702345606543426
 20
12.10142539928712
 10
8.710822088626827
 20
12.10214065502442
 10
8.718897636341853
 20
12.10291313122071
 10
8.726542217639888
 20
12.10373984764375
 10
8.733727371303046
 20
12.10461762537914
 10
8.740426386999891
 20
12.10554348419465
 10
8.74661434253832
 20
12.10651384781159
 10
8.752268215624296
 20
12.10752513995128
 10
8.757366970785264
 20
12.10857358565288
 10
8.76189163387597
 20
12.10965521127341
 10
8.765825391419534
 20
12.11076604316987
 10
8.76915359060745
 20
12.11190190901714
 10
8.771863863475923
 20
12.11305863649008
 10
8.773946126905883
 20
12.11423205326356
 10
8.775392619875873
 20
12.11541758964814
 10
8.776197977967862
 20
12.11661087463654
 10
8.77635920853198
 20
12.11780753722148
 10
8.775875690686509
 20
12.11900300771353
 10
8.774749237406059
 20
12.12019311378754
 10
8.772984033433402
 20
12.12137308707195
 10
8.77058666011473
 20
12.12253855655946
 10
8.767566008476222
 20
12.12368554860709
 10
8.763933341312215
 20
12.1248094935254
 10
8.759702169008855
 20
12.12590621898927
 10
8.754888212291204
 20
12.1269717513557
 10
8.749509402223234
 20
12.12800211698172
 10
8.743585731196208
 20
12.12899334222433
 10
8.737139252928697
 20
12.12994185080486
 10
8.730193933454955
 20
12.13084406644461
 10
8.722775613872016
 20
12.13169681022919
 10
8.714911898580993
 20
12.13249670456208
 10
8.706632031110729
 20
12.13324096789318
 10
8.697966813403173
 20
12.13392642130809
 10
8.688948487845863
 20
12.13455107798534
 10
8.679610600677932
 20
12.13511215637482
 10
8.669987884022598
 20
12.13560786833721
 10
8.660116144128446
 20
12.13603622705099
 10
8.650032096835776
 20
12.13639564305899
 10
8.639773258922303
 20
12.13668472558615
 10
8.629377792882724
 20
12.13690248122173
 10
8.618884370334749
 20
12.13704811523713
 10
8.608332028440193
 20
12.13712103158591
 10
8.597760022445573
 20
12.13712103158591
 10
8.587207680551015
 20
12.13704811523713
 10
8.57671425800304
 20
12.13690248122173
 10
8.566318791963462
 20
12.13668472558615
 10
8.55605995404999
 20
12.13639564305899
 10
8.54597590675732
 20
12.13603622705099
 10
8.536104166863168
 20
12.13560786833721
 10
8.526481450207834
 20
12.13511215637482
 10
8.517143563039903
 20
12.13455107798534
 10
8.508125237482591
 20
12.13392642130809
 10
8.499460019775037
 20
12.13324096789318
 10
8.491180152304773
 20
12.13249670456208
 10
8.483316437013749
 20
12.13169681022919
 10
8.47589811743081
 20
12.13084406644461
 10
8.468952797957067
 20
12.12994185080486
 10
8.462506319689557
 20
12.12899334222433
 10
8.456582648662532
 20
12.12800211698172
 10
8.45120383859456
 20
12.1269717513557
 10
8.44638988187691
 20
12.12590621898927
 10
8.442158709573551
 20
12.1248094935254
 10
8.438526042409543
 20
12.12368554860709
 10
8.435505390771036
 20
12.12253855655946
 10
8.433108017452363
 20
12.12137308707195
 10
8.431342813479705
 20
12.12019311378754
 10
8.430216360199256
 20
12.11900300771353
 10
8.429732842353786
 20
12.11780753722148
 10
8.429894072917901
 20
12.11661087463654
 10
8.430699431009893
 20
12.11541758964814
 10
8.432145923979883
 20
12.11423205326356
 10
8.434228187409843
 20
12.11305863649008
 10
8.436938460278316
 20
12.11190190901714
 10
8.440266659466232
 20
12.11076604316987
 10
8.444200417009795
 20
12.10965521127341
 10
8.448725080100501
 20
12.10857358565288
 10
8.453823835261468
 20
12.10752513995128
 10
8.459477708347444
 20
12.10651384781159
 10
8.465665663885875
 20
12.10554348419465
 10
8.472364679582719
 20
12.10461762537914
 10
8.479549833245878
 20
12.10373984764375
 10
8.48719441454391
 20
12.10291313122071
 10
8.495269962258939
 20
12.10214065502442
 10
8.50374644434234
 20
12.10142539928712
 10
8.512592326211734
 20
12.10077014555889
 10
8.521774707344974
 20
12.10017707934337
 10
8.5312594206212
 20
12.09964838614421
 10
8.541011181332473
 20
12.09918605278291
 10
8.550993720673327
 20
12.09879206608094
 10
8.561169897499485
 20
12.09846761813121
 10
8.571501853548292
 20
12.09821409970877
 10
8.581951157793705
 20
12.09803230554221
 10
8.592478936831458
 20
12.09792303036012
 10
8.603046025442882
 20
12.09788647284465
  0
ARC
  5
B3
330
1F
100
AcDbEntity
  8
0
  6
CONTINUOUS
 62
     7
100
AcDbCircle
 10
-470.65171851441
 20
13.12424113599952
 30
0.0
 40
475.4230109757191
100
AcDbArc
 50
359.9137599285602
 51
0.3077374863372916
  0
ARC
  5
B4
330
1F
100
AcDbEntity
  8
0
  6
CONTINUOUS
 62
     7
100
AcDbCircle
 10
487.796996678538
 20
13.12434067695437
 30
0.0
 40
475.3621974315574
100
AcDbArc
 50
179.6922351420537
 51
180.0862631019527
  0
ARC
  5
B5
330
1F
100
AcDbEntity
  8
0
  6
CONTINUOUS
 62
     7
100
AcDbCircle
 10
8.622069170040917
 20
11.20468431800068
 30
0.0
 40
0.9127727118384473
100
AcDbArc
 50
81.78361551509851
 51
91.19419084590496
  0
ARC
  5
B6
330
1F
100
AcDbEntity
  8
0
  6
CONTINUOUS
 62
     7
100
AcDbCircle
 10
8.584022880844871
 20
11.20468431800124
 30
0.0
 40
0.9127727118378839
100
AcDbArc
 50
88.80580915409586
 51
98.21638448490807
  0
CIRCLE
  5
B7
330
1F
100
AcDbEntity
  8
0
  6
CONTINUOUS
 62
     7
100
AcDbCircle
 10
8.603046025442882
 20
13.14239860167461
 30
0.0
 40
0.3665179007108019
  0
CIRCLE
  5
B8
330
1F
100
AcDbEntity
  8
0
  6
CONTINUOUS
 62
     7
100
AcDbCircle
 10
8.603046025442882
 20
13.14239860167461
 30
0.0
 40
0.1733333333333302
  0
LINE
  5
B9
330
1F
100
AcDbEntity
  8
0
  6
CONTINUOUS
 62
     7
100
AcDbLine
 10
4.7581447021244
 20
4.588327163578725
 30
0.0
 11
8.229086161263589
 21
4.518908316017842
 31
0.0
  0
LINE
  5
BA
330
1F
100
AcDbEntity
  8
0
  6
CONTINUOUS
 62
     7
100
AcDbLine
 10
8.977005889622176
 20
4.518908316017842
 30
0.0
 11
12.44794734876136
 21
4.588327163578725
 31
0.0
  0
ARC
  5
BB
330
1F
100
AcDbEntity
  8
0
  6
CONTINUOUS
 62
     7
100
AcDbCircle
 10
8.603046025442882
 20
4.970939046460745
 30
0.0
 40
0.5866666666666676
100
AcDbArc
 50
287.1847959010885
 51
309.6005648414014
  0
ARC
  5
BC
330
1F
100
AcDbEntity
  8
0
  6
CONTINUOUS
 62
     7
100
AcDbCircle
 10
8.603046025442882
 20
4.970939046460745
 30
0.0
 40
0.5866666666666665
100
AcDbArc
 50
230.3994351586003
 51
252.8152040989131
  0
LINE
  5
BD
330
1F
100
AcDbEntity
  8
0
  6
CONTINUOUS
 62
     7
100
AcDbLine
 10
14.26971285105526
 20
7.53143325857486
 30
0.0
 11
14.26971285105526
 21
7.298099750401235
 31
0.0
  0
LINE
  5
BE
330
1F
100
AcDbEntity
  8
0
  6
CONTINUOUS
 62
     7
100
AcDbLine
 10
2.936379199830497
 20
7.53143325857486
 30
0.0
 11
2.936379199830497
 21
7.298099750401235
 31
0.0
  0
LINE
  5
BF
330
1F
100
AcDbEntity
  8
0
  6
CONTINUOUS
 62
     7
100
AcDbLine
 10
2.936379199830497
 20
7.298099750401235
 30
0.0
 11
14.26971285105526
 21
7.298099750401235
 31
0.0
  0
LINE
  5
C0
330
1F
100
AcDbEntity
  8
0
  6
CONTINUOUS
 62
     7
100
AcDbLine
 10
2.936379199830497
 20
7.53143325857486
 30
0.0
 11
14.26971285105526
 21
7.53143325857486
 31
0.0
  0
LINE
  5
C1
330
1F
100
AcDbEntity
  8
0
  6
CONTINUOUS
 62
     7
100
AcDbLine
 10
13.65438549280942
 20
7.298099750401235
 30
0.0
 11
12.44857041598141
 21
4.589794927956319
 31
0.0
  0
LWPOLYLINE
  5
C2
330
1F
100
AcDbEntity
  8
0
  6
CONTINUOUS
 62
     7
100
AcDbPolyline
 90
       17
 70
   128
 43
0.0
 10
12.44857041598141
 20
4.589794927956319
 10
11.48675788005968
 20
4.57099711311028
 10
10.52493640344123
 20
4.552671267709787
 10
10.04401573102454
 20
4.543864085397776
 10
9.563083237019979
 20
4.535738879563069
 10
9.322597221143846
 20
4.532124553244964
 10
9.082100923466487
 20
4.529119684419688
 10
8.841597026196922
 20
4.527068986616191
 10
8.601088150620142
 20
4.526317272704498
 10
8.360855018702949
 20
4.52709024560616
 10
8.120626892256542
 20
4.529154751819031
 10
7.880406464743419
 20
4.53216697188383
 10
7.640196170019909
 20
4.535783384364502
 10
7.15974448681653
 20
4.543905709308044
 10
6.679304525859956
 20
4.552705739062683
 10
5.71840851069272
 20
4.571015193185862
 10
4.757521634904349
 20
4.589794927956319
  0
LINE
  5
C3
330
1F
100
AcDbEntity
  8
0
  6
CONTINUOUS
 62
     7
100
AcDbLine
 10
3.551706558076346
 20
7.298099750401235
 30
0.0
 11
4.757521634904349
 21
4.589794927956319
 31
0.0
  0
ARC
  5
C4
330
1F
100
AcDbEntity
  8
0
  6
CONTINUOUS
 62
     7
100
AcDbCircle
 10
8.6043749146012
 20
7.162434319936739
 30
0.0
 40
0.1721563628922405
100
AcDbArc
 50
269.5577247621022
 51
52.19347656495081
  0
ARC
  5
C5
330
1F
100
AcDbEntity
  8
0
  6
CONTINUOUS
 62
     7
100
AcDbCircle
 10
8.60175241871777
 20
7.162449744711482
 30
0.0
 40
0.1721715184987989
100
AcDbArc
 50
127.8174720910381
 51
270.4304945656539
  0
ARC
  5
C6
330
1F
100
AcDbEntity
  8
0
  6
CONTINUOUS
 62
     7
100
AcDbCircle
 10
8.603043065725277
 20
7.166044496073908
 30
0.0
 40
0.1733493004968171
100
AcDbArc
 50
180.9267016432453
 51
359.203401885225
  0
LINE
  5
C7
330
1F
100
AcDbEntity
  8
0
  6
CONTINUOUS
 62
     7
100
AcDbLine
 10
8.229086161263589
 20
4.518908316017842
 30
0.0
 11
8.977005889622176
 21
4.518908316017842
 31
0.0
  0
LWPOLYLINE
  5
C8
330
1F
100
AcDbEntity
  8
0
  6
CONTINUOUS
 62
     7
100
AcDbPolyline
 90
        3
 70
   128
 43
0.0
 10
4.757521634904349
 20
4.589794927956319
 10
4.75804138740679
 20
4.588627869011617
 10
4.758145894217297
 20
4.588392828029053
  0
LWPOLYLINE
  5
C9
330
1F
100
AcDbEntity
  8
0
  6
CONTINUOUS
 62
     7
100
AcDbPolyline
 90
        3
 70
   128
 43
0.0
 10
12.44794615666847
 20
4.588392927370127
 10
12.44805066347897
 20
4.588627869011617
 10
12.44857041598141
 20
4.589794927956319
  0
LINE
  5
CA
330
1F
100
AcDbEntity
  8
0
  6
CONTINUOUS
 62
     7
100
AcDbLine
 10
8.603046025442882
 20
4.41046302926705
 30
0.0
 11
8.776379362352495
 21
4.41046302926705
 31
0.0
  0
LINE
  5
CB
330
1F
100
AcDbEntity
  8
0
  6
CONTINUOUS
 62
     7
100
AcDbLine
 10
8.429712688533271
 20
4.41046302926705
 30
0.0
 11
8.603046025442882
 21
4.41046302926705
 31
0.0
  0
ENDSEC
  0
SECTION
  2
OBJECTS
  0
DICTIONARY
  5
C
330
0
100
AcDbDictionary
  3
ACAD_GROUP
350
D
  3
ACAD_LAYOUT
350
1A
  3
ACAD_MLINESTYLE
350
17
  3
ACAD_PLOTSETTINGS
350
19
  3
ACAD_PLOTSTYLENAME
350
E
  3
ACDBHEADERROUNDTRIPXREC
350
112
  3
ACDBVARIABLEDICTIONARY
350
10C
  0
DICTIONARY
  5
D4
330
1F
100
AcDbDictionary
280
     1
  3
ACAD_LAYOUTSELFREF
360
134
  0
DICTIONARY
  5
D6
330
1B
100
AcDbDictionary
280
     1
  3
ACAD_LAYOUTSELFREF
360
133
  0
DICTIONARY
  5
D
102
{ACAD_REACTORS
330
C
102
}
330
C
100
AcDbDictionary
  0
DICTIONARY
  5
1A
102
{ACAD_REACTORS
330
C
102
}
330
C
100
AcDbDictionary
  0
DICTIONARY
  5
17
102
{ACAD_REACTORS
330
C
102
}
330
C
100
AcDbDictionary
  3
STANDARD
350
18
  0
DICTIONARY
  5
19
102
{ACAD_REACTORS
330
C
102
}
330
C
100
AcDbDictionary
  0
ACDBDICTIONARYWDFLT
  5
E
102
{ACAD_REACTORS
330
C
102
}
330
C
100
AcDbDictionary
281
     1
  3
Normal
350
F
100
AcDbDictionaryWithDefault
340
F
  0
DICTIONARY
  5
112
102
{ACAD_REACTORS
330
C
102
}
330
C
100
AcDbDictionary
  3
CEPSNTYPE
350
11C
  3
DIMSTYLEDATA
350
120
  3
FINGERPRINTGUID
350
11D
  3
HYPERLINKBASE
350
115
  3
INSUNITS
350
11B
  3
LAYOUTDICT
350
117
  3
LWETCUNION
350
11A
  3
PLOTSETDICT
350
118
  3
PLOTSTYLNAMDICT
350
119
  3
PSVPSCALE
350
11F
  3
PUCSBASE
350
123
  3
PUCSORGBACK
350
129
  3
PUCSORGBOTTOM
350
125
  3
PUCSORGFRONT
350
128
  3
PUCSORGLEFT
350
126
  3
PUCSORGRIGHT
350
127
  3
PUCSORGTOP
350
124
  3
PUCSORTHOREF
350
121
  3
PUCSORTHOVIEW
350
122
  3
STYLESHEET
350
116
  3
TSTACKALIGN
350
113
  3
TSTACKSIZE
350
114
  3
UCSBASE
350
12C
  3
UCSORGBACK
350
132
  3
UCSORGBOTTOM
350
12E
  3
UCSORGFRONT
350
131
  3
UCSORGLEFT
350
12F
  3
UCSORGRIGHT
350
130
  3
UCSORGTOP
350
12D
  3
UCSORTHOREF
350
12A
  3
UCSORTHOVIEW
350
12B
  3
VERSIONGUID
350
11E
  0
DICTIONARY
  5
10C
102
{ACAD_REACTORS
330
C
102
}
330
C
100
AcDbDictionary
  3
DIMASSOC
350
10D
  0
XRECORD
  5
134
102
{ACAD_REACTORS
330
D4
102
}
330
D4
100
AcDbXrecord
340
1F
  0
XRECORD
  5
133
102
{ACAD_REACTORS
330
D6
102
}
330
D6
100
AcDbXrecord
340
1B
  0
MLINESTYLE
  5
18
102
{ACAD_REACTORS
330
17
102
}
330
17
100
AcDbMlineStyle
  2
STANDARD
 70
     0
  3

 62
   256
 51
90.0
 52
90.0
 71
     2
 49
0.5
 62
   256
  6
BYLAYER
 49
-0.5
 62
   256
  6
BYLAYER
  0
ACDBPLACEHOLDER
  5
F
102
{ACAD_REACTORS
330
E
102
}
330
E
100
AcDbPlaceHolder
280
     0
  0
XRECORD
  5
11C
102
{ACAD_REACTORS
330
112
102
}
330
112
100
AcDbXrecord
 90
        0
  0
XRECORD
  5
120
102
{ACAD_REACTORS
330
112
102
}
330
112
100
AcDbXrecord
1000
DSTYLE
1002
{
1070
   278
 70
    44
1002
}
  0
XRECORD
  5
11D
102
{ACAD_REACTORS
330
112
102
}
330
112
100
AcDbXrecord
  1
{576A93DA-EC42-4D7D-AEB6-02A9CDDE31F9}
  0
XRECORD
  5
115
102
{ACAD_REACTORS
330
112
102
}
330
112
100
AcDbXrecord
  1

  0
XRECORD
  5
11B
102
{ACAD_REACTORS
330
112
102
}
330
112
100
AcDbXrecord
 90
        4
  0
XRECORD
  5
117
102
{ACAD_REACTORS
330
112
102
}
330
112
100
AcDbXrecord
340
1A
  0
XRECORD
  5
11A
102
{ACAD_REACTORS
330
112
102
}
330
112
100
AcDbXrecord
 90
    10781
  0
XRECORD
  5
118
102
{ACAD_REACTORS
330
112
102
}
330
112
100
AcDbXrecord
340
19
  0
XRECORD
  5
119
102
{ACAD_REACTORS
330
112
102
}
330
112
100
AcDbXrecord
340
E
  0
XRECORD
  5
11F
102
{ACAD_REACTORS
330
112
102
}
330
112
100
AcDbXrecord
 40
0.0
  0
XRECORD
  5
123
102
{ACAD_REACTORS
330
112
102
}
330
112
100
AcDbXrecord
340
0
  0
XRECORD
  5
129
102
{ACAD_REACTORS
330
112
102
}
330
112
100
AcDbXrecord
 10
0.0
 20
0.0
 30
0.0
  0
XRECORD
  5
125
102
{ACAD_REACTORS
330
112
102
}
330
112
100
AcDbXrecord
 10
0.0
 20
0.0
 30
0.0
  0
XRECORD
  5
128
102
{ACAD_REACTORS
330
112
102
}
330
112
100
AcDbXrecord
 10
0.0
 20
0.0
 30
0.0
  0
XRECORD
  5
126
102
{ACAD_REACTORS
330
112
102
}
330
112
100
AcDbXrecord
 10
0.0
 20
0.0
 30
0.0
  0
XRECORD
  5
127
102
{ACAD_REACTORS
330
112
102
}
330
112
100
AcDbXrecord
 10
0.0
 20
0.0
 30
0.0
  0
XRECORD
  5
124
102
{ACAD_REACTORS
330
112
102
}
330
112
100
AcDbXrecord
 10
0.0
 20
0.0
 30
0.0
  0
XRECORD
  5
121
102
{ACAD_REACTORS
330
112
102
}
330
112
100
AcDbXrecord
340
0
  0
XRECORD
  5
122
102
{ACAD_REACTORS
330
112
102
}
330
112
100
AcDbXrecord
 70
     0
  0
XRECORD
  5
116
102
{ACAD_REACTORS
330
112
102
}
330
112
100
AcDbXrecord
  1

  0
XRECORD
  5
113
102
{ACAD_REACTORS
330
112
102
}
330
112
100
AcDbXrecord
 90
        1
  0
XRECORD
  5
114
102
{ACAD_REACTORS
330
112
102
}
330
112
100
AcDbXrecord
 90
       70
  0
XRECORD
  5
12C
102
{ACAD_REACTORS
330
112
102
}
330
112
100
AcDbXrecord
340
0
  0
XRECORD
  5
132
102
{ACAD_REACTORS
330
112
102
}
330
112
100
AcDbXrecord
 10
0.0
 20
0.0
 30
0.0
  0
XRECORD
  5
12E
102
{ACAD_REACTORS
330
112
102
}
330
112
100
AcDbXrecord
 10
0.0
 20
0.0
 30
0.0
  0
XRECORD
  5
131
102
{ACAD_REACTORS
330
112
102
}
330
112
100
AcDbXrecord
 10
0.0
 20
0.0
 30
0.0
  0
XRECORD
  5
12F
102
{ACAD_REACTORS
330
112
102
}
330
112
100
AcDbXrecord
 10
0.0
 20
0.0
 30
0.0
  0
XRECORD
  5
130
102
{ACAD_REACTORS
330
112
102
}
330
112
100
AcDbXrecord
 10
0.0
 20
0.0
 30
0.0
  0
XRECORD
  5
12D
102
{ACAD_REACTORS
330
112
102
}
330
112
100
AcDbXrecord
 10
0.0
 20
0.0
 30
0.0
  0
XRECORD
  5
12A
102
{ACAD_REACTORS
330
112
102
}
330
112
100
AcDbXrecord
340
0
  0
XRECORD
  5
12B
102
{ACAD_REACTORS
330
112
102
}
330
112
100
AcDbXrecord
 70
     0
  0
XRECORD
  5
11E
102
{ACAD_REACTORS
330
112
102
}
330
112
100
AcDbXrecord
  1
{7CBBE80D-EB5F-4687-93E4-C52132A4AD46}
  0
DICTIONARYVAR
  5
10D
102
{ACAD_REACTORS
330
10C
102
}
330
10C
100
DictionaryVariables
280
     0
  1
1
  0
ENDSEC
  0
EOF
