  0
SECTION
  2
HEADER
  9
$ACADVER
  1
AC1014
  9
$ACADMAINTVER
 70
     9
  9
$DWGCODEPAGE
  3
ANSI_1250
  9
$INSBASE
 10
0.0
 20
0.0
 30
0.0
  9
$EXTMIN
 10
1.948181988489441
 20
4.03668863889708
 30
0.0
  9
$EXTMAX
 10
15.62834118184519
 20
19.38289807852605
 30
0.0
  9
$LIMMIN
 10
0.0
 20
0.0
  9
$LIMMAX
 10
0.0
 20
0.0
  9
$ORTHOMODE
 70
     1
  9
$REGENMODE
 70
     1
  9
$FILLMODE
 70
     1
  9
$QTEXTMODE
 70
     0
  9
$MIRRTEXT
 70
     1
  9
$DRAGMODE
 70
     2
  9
$LTSCALE
 40
1.0
  9
$OSMODE
 70
  3007
  9
$ATTMODE
 70
     1
  9
$TEXTSIZE
 40
2.5
  9
$TRACEWID
 40
1.0
  9
$TEXTSTYLE
  7
STANDARD
  9
$CLAYER
  8
0
  9
$CELTYPE
  6
BYLAYER
  9
$CECOLOR
 62
   256
  9
$CELTSCALE
 40
1.0
  9
$DELOBJ
 70
     1
  9
$DISPSILH
 70
     0
  9
$DIMSCALE
 40
1.0
  9
$DIMASZ
 40
0.3
  9
$DIMEXO
 40
0.1
  9
$DIMDLI
 40
3.75
  9
$DIMRND
 40
0.0
  9
$DIMDLE
 40
0.0
  9
$DIMEXE
 40
0.1
  9
$DIMTP
 40
0.0
  9
$DIMTM
 40
0.0
  9
$DIMTXT
 40
0.2822222222222222
  9
$DIMCEN
 40
2.5
  9
$DIMTSZ
 40
0.0
  9
$DIMTOL
 70
     0
  9
$DIMLIM
 70
     0
  9
$DIMTIH
 70
     1
  9
$DIMTOH
 70
     1
  9
$DIMSE1
 70
     0
  9
$DIMSE2
 70
     0
  9
$DIMTAD
 70
     1
  9
$DIMZIN
 70
     0
  9
$DIMBLK
  1

  9
$DIMASO
 70
     1
  9
$DIMSHO
 70
     1
  9
$DIMPOST
  1

  9
$DIMAPOST
  1

  9
$DIMALT
 70
     0
  9
$DIMALTD
 70
     3
  9
$DIMALTF
 40
0.3937007874015748
  9
$DIMLFAC
 40
15.0
  9
$DIMTOFL
 70
     1
  9
$DIMTVP
 40
0.0
  9
$DIMTIX
 70
     0
  9
$DIMSOXD
 70
     0
  9
$DIMSAH
 70
     0
  9
$DIMBLK1
  1

  9
$DIMBLK2
  1

  9
$DIMSTYLE
  2
ISO-25
  9
$DIMCLRD
 70
     0
  9
$DIMCLRE
 70
     0
  9
$DIMCLRT
 70
     0
  9
$DIMTFAC
 40
1.0
  9
$DIMGAP
 40
0.1524
  9
$DIMJUST
 70
     0
  9
$DIMSD1
 70
     0
  9
$DIMSD2
 70
     0
  9
$DIMTOLJ
 70
     0
  9
$DIMTZIN
 70
     0
  9
$DIMALTZ
 70
     0
  9
$DIMALTTZ
 70
     0
  9
$DIMFIT
 70
     3
  9
$DIMUPT
 70
     0
  9
$DIMUNIT
 70
     2
  9
$DIMDEC
 70
     2
  9
$DIMTDEC
 70
     2
  9
$DIMALTU
 70
     2
  9
$DIMALTTD
 70
     3
  9
$DIMTXSTY
  7
STANDARD
  9
$DIMAUNIT
 70
     0
  9
$LUNITS
 70
     2
  9
$LUPREC
 70
     1
  9
$SKETCHINC
 40
1.0
  9
$FILLETRAD
 40
10.0
  9
$AUNITS
 70
     0
  9
$AUPREC
 70
     0
  9
$MENU
  1
.
  9
$ELEVATION
 40
0.0
  9
$PELEVATION
 40
0.0
  9
$THICKNESS
 40
0.0
  9
$LIMCHECK
 70
     0
  9
$BLIPMODE
 70
     0
  9
$CHAMFERA
 40
10.0
  9
$CHAMFERB
 40
10.0
  9
$CHAMFERC
 40
20.0
  9
$CHAMFERD
 40
0.0
  9
$SKPOLY
 70
     0
  9
$TDCREATE
 40
2453964.549074907
  9
$TDUPDATE
 40
2453966.376722176
  9
$TDINDWG
 40
0.0189780440
  9
$TDUSRTIMER
 40
0.0189780440
  9
$USRTIMER
 70
     1
  9
$ANGBASE
 50
0.0
  9
$ANGDIR
 70
     0
  9
$PDMODE
 70
     0
  9
$PDSIZE
 40
-1.0
  9
$PLINEWID
 40
0.0
  9
$COORDS
 70
     2
  9
$SPLFRAME
 70
     0
  9
$SPLINETYPE
 70
     6
  9
$SPLINESEGS
 70
     8
  9
$ATTDIA
 70
     0
  9
$ATTREQ
 70
     1
  9
$HANDLING
 70
 22529
  9
$HANDSEED
  5
3E3
  9
$SURFTAB1
 70
     6
  9
$SURFTAB2
 70
     6
  9
$SURFTYPE
 70
     6
  9
$SURFU
 70
     6
  9
$SURFV
 70
     6
  9
$UCSNAME
  2

  9
$UCSORG
 10
0.0
 20
0.0
 30
0.0
  9
$UCSXDIR
 10
1.0
 20
0.0
 30
0.0
  9
$UCSYDIR
 10
0.0
 20
1.0
 30
0.0
  9
$PUCSNAME
  2

  9
$PUCSORG
 10
0.0
 20
0.0
 30
0.0
  9
$PUCSXDIR
 10
1.0
 20
0.0
 30
0.0
  9
$PUCSYDIR
 10
0.0
 20
1.0
 30
0.0
  9
$USERI1
 70
     0
  9
$USERI2
 70
     0
  9
$USERI3
 70
     0
  9
$USERI4
 70
     0
  9
$USERI5
 70
     0
  9
$USERR1
 40
0.0
  9
$USERR2
 40
0.0
  9
$USERR3
 40
0.0
  9
$USERR4
 40
0.0
  9
$USERR5
 40
0.0
  9
$WORLDVIEW
 70
     1
  9
$SHADEDGE
 70
     3
  9
$SHADEDIF
 70
    70
  9
$TILEMODE
 70
     1
  9
$MAXACTVP
 70
    48
  9
$PINSBASE
 10
0.0
 20
0.0
 30
0.0
  9
$PLIMCHECK
 70
     0
  9
$PEXTMIN
 10
1.000000000000000E+20
 20
1.000000000000000E+20
 30
1.000000000000000E+20
  9
$PEXTMAX
 10
-1.000000000000000E+20
 20
-1.000000000000000E+20
 30
-1.000000000000000E+20
  9
$PLIMMIN
 10
0.0
 20
0.0
  9
$PLIMMAX
 10
420.0
 20
297.0
  9
$UNITMODE
 70
     0
  9
$VISRETAIN
 70
     1
  9
$PLINEGEN
 70
     0
  9
$PSLTSCALE
 70
     1
  9
$TREEDEPTH
 70
  3020
  9
$PICKSTYLE
 70
     1
  9
$CMLSTYLE
  2
STANDARD
  9
$CMLJUST
 70
     0
  9
$CMLSCALE
 40
20.0
  9
$PROXYGRAPHICS
 70
     1
  9
$MEASUREMENT
 70
     1
  0
ENDSEC
  0
SECTION
  2
CLASSES
  0
CLASS
  1
ACDBDICTIONARYWDFLT
  2
AcDbDictionaryWithDefault
  3
AutoCAD 2000
 90
        0
280
     0
281
     0
  0
CLASS
  1
ACDBPLACEHOLDER
  2
AcDbPlaceHolder
  3
AutoCAD 2000
 90
        0
280
     0
281
     0
  0
CLASS
  1
LAYOUT
  2
AcDbLayout
  3
AutoCAD 2000
 90
        0
280
     0
281
     0
  0
CLASS
  1
DICTIONARYVAR
  2
AcDbDictionaryVar
  3
AutoCAD 2000
 90
        0
280
     0
281
     0
  0
CLASS
  1
LONG_TRANSACTION
  2
AcDbLongTransaction
  3
AutoCAD 2000
 90
        0
280
     0
281
     0
  0
CLASS
  1
LWPOLYLINE
  2
AcDbPolyline
  3
AutoCAD 2000
 90
        0
280
     0
281
     1
  0
CLASS
  1
HATCH
  2
AcDbHatch
  3
AutoCAD 2000
 90
        0
280
     0
281
     1
  0
CLASS
  1
XRECORD
  2
AcDbXrecord
  3
AutoCAD 2000
 90
        0
280
     0
281
     0
  0
CLASS
  1
LONG_TRANSACTION
  2
AcDbLongTransaction
  3
AutoCAD 2000
 90
        0
280
     0
281
     0
  0
CLASS
  1
LWPOLYLINE
  2
AcDbPolyline
  3
AutoCAD 2000
 90
        0
280
     0
281
     1
  0
CLASS
  1
HATCH
  2
AcDbHatch
  3
AutoCAD 2000
 90
        0
280
     0
281
     1
  0
CLASS
  1
XRECORD
  2
AcDbXrecord
  3
AutoCAD 2000
 90
        0
280
     0
281
     0
  0
ENDSEC
  0
SECTION
  2
TABLES
  0
TABLE
  2
VPORT
  5
8
330
0
100
AcDbSymbolTable
 70
     2
  0
VPORT
  5
3BE
330
8
100
AcDbSymbolTableRecord
100
AcDbViewportTableRecord
  2
*ACTIVE
 70
     0
 10
0.0
 20
0.0
 11
1.0
 21
1.0
 12
8.788636841879505
 22
11.70964055323233
 13
0.0
 23
0.0
 14
10.0
 24
10.0
 15
10.0
 25
10.0
 16
0.0
 26
0.0
 36
1.0
 17
0.0
 27
0.0
 37
0.0
 40
15.49427178612538
 41
1.674961119751166
 42
50.0
 43
0.0
 44
0.0
 50
0.0
 51
0.0
 71
     0
 72
  2000
 73
     1
 74
     3
 75
     0
 76
     0
 77
     0
 78
     0
  0
ENDTAB
  0
TABLE
  2
LTYPE
  5
5
330
0
100
AcDbSymbolTable
 70
     1
  0
LTYPE
  5
14
330
5
100
AcDbSymbolTableRecord
100
AcDbLinetypeTableRecord
  2
BYBLOCK
 70
     0
  3

 72
    65
 73
     0
 40
0.0
  0
LTYPE
  5
15
330
5
100
AcDbSymbolTableRecord
100
AcDbLinetypeTableRecord
  2
BYLAYER
 70
     0
  3

 72
    65
 73
     0
 40
0.0
  0
LTYPE
  5
16
330
5
100
AcDbSymbolTableRecord
100
AcDbLinetypeTableRecord
  2
CONTINUOUS
 70
     0
  3
Solid line
 72
    65
 73
     0
 40
0.0
  0
ENDTAB
  0
TABLE
  2
LAYER
  5
2
330
0
100
AcDbSymbolTable
 70
     2
  0
LAYER
  5
10
330
2
100
AcDbSymbolTableRecord
100
AcDbLayerTableRecord
  2
0
 70
     0
 62
     7
  6
CONTINUOUS
  0
LAYER
  5
30
330
2
100
AcDbSymbolTableRecord
100
AcDbLayerTableRecord
  2
REMARKS
 70
     0
 62
     5
  6
CONTINUOUS
  0
ENDTAB
  0
TABLE
  2
STYLE
  5
3
330
0
100
AcDbSymbolTable
 70
     1
  0
STYLE
  5
11
330
3
100
AcDbSymbolTableRecord
100
AcDbTextStyleTableRecord
  2
STANDARD
 70
     0
 40
0.0
 41
1.0
 50
0.0
 71
     0
 42
2.5
  3
ARIAL.TTF
  4

1001
ACAD
1000
Arial
1071
       34
  0
ENDTAB
  0
TABLE
  2
VIEW
  5
6
330
0
100
AcDbSymbolTable
 70
     0
  0
ENDTAB
  0
TABLE
  2
UCS
  5
7
330
0
100
AcDbSymbolTable
 70
     0
  0
ENDTAB
  0
TABLE
  2
APPID
  5
9
330
0
100
AcDbSymbolTable
 70
     1
  0
APPID
  5
12
330
9
100
AcDbSymbolTableRecord
100
AcDbRegAppTableRecord
  2
ACAD
 70
     0
  0
ENDTAB
  0
TABLE
  2
DIMSTYLE
  5
A
330
0
100
AcDbSymbolTable
 70
     1
  0
DIMSTYLE
105
27
330
A
100
AcDbSymbolTableRecord
100
AcDbDimStyleTableRecord
  2
ISO-25
 70
     0
  3

  4

  5

  6

  7

 40
1.0
 41
2.5
 42
0.625
 43
3.75
 44
1.25
 45
0.0
 46
0.0
 47
0.0
 48
0.0
140
2.5
141
2.5
142
0.0
143
0.03937007874016
144
1.0
145
0.0
146
1.0
147
0.625
 71
     0
 72
     0
 73
     0
 74
     0
 75
     0
 76
     0
 77
     1
 78
     8
170
     0
171
     3
172
     1
173
     0
174
     0
175
     0
176
     0
177
     0
178
     0
270
     2
271
     2
272
     2
273
     2
274
     3
340
11
275
     0
280
     0
281
     0
282
     0
283
     0
284
     8
285
     0
286
     0
287
     3
288
     0
  0
ENDTAB
  0
TABLE
  2
BLOCK_RECORD
  5
1
330
0
100
AcDbSymbolTable
 70
     1
  0
BLOCK_RECORD
  5
1F
102
{ACAD_XDICTIONARY
360
37F
102
}
330
1
100
AcDbSymbolTableRecord
100
AcDbBlockTableRecord
  2
*MODEL_SPACE
  0
BLOCK_RECORD
  5
1B
102
{ACAD_XDICTIONARY
360
381
102
}
330
1
100
AcDbSymbolTableRecord
100
AcDbBlockTableRecord
  2
*PAPER_SPACE
  0
ENDTAB
  0
ENDSEC
  0
SECTION
  2
BLOCKS
  0
BLOCK
  5
20
330
1F
100
AcDbEntity
  8
0
100
AcDbBlockBegin
  2
*MODEL_SPACE
 70
     0
 10
0.0
 20
0.0
 30
0.0
  3
*MODEL_SPACE
  1

  0
ENDBLK
  5
21
330
1F
100
AcDbEntity
  8
0
100
AcDbBlockEnd
  0
BLOCK
  5
1C
330
1B
100
AcDbEntity
 67
     1
  8
0
100
AcDbBlockBegin
  2
*PAPER_SPACE
 70
     0
 10
0.0
 20
0.0
 30
0.0
  3
*PAPER_SPACE
  1

  0
ENDBLK
  5
1D
330
1B
100
AcDbEntity
 67
     1
  8
0
100
AcDbBlockEnd
  0
ENDSEC
  0
SECTION
  2
ENTITIES
  0
POINT
  5
CB
330
1F
100
AcDbEntity
  8
REMARKS
  6
CONTINUOUS
 62
     7
100
AcDbPoint
 10
8.914882819081279
 20
4.03668863889708
 30
0.0
  0
LWPOLYLINE
  5
CC
330
1F
100
AcDbEntity
  8
0
  6
CONTINUOUS
 62
     7
100
AcDbPolyline
 90
       56
 70
   128
 43
0.0
 10
12.75875685845438
 20
4.233161672471975
 10
12.77154913981018
 20
4.281668580695829
 10
12.79541493402146
 20
4.368925998988313
 10
12.81943836595639
 20
4.453771732106724
 10
12.84356449376727
 20
4.536223709234764
 10
12.86773916894948
 20
4.616299174303903
 10
12.89190914716162
 20
4.694014664135778
 10
12.91602250806
 20
4.76938587625985
 10
12.9424213966513
 20
4.849604632135576
 10
12.96862450594421
 20
4.927024503638998
 10
12.99456748250841
 20
5.00166392601956
 10
13.02018802448946
 20
5.073540485366707
 10
13.04542558209267
 20
5.142671072292785
 10
13.07022133192777
 20
5.209071848472773
 10
13.09451826069794
 20
5.272758262757816
 10
13.11826126836892
 20
5.33374500919211
 10
13.14139744835261
 20
5.392046023211285
 10
13.16387594817234
 20
5.44767464895344
 10
13.18526556922886
 20
5.499720970599238
 10
13.20592921620965
 20
5.549213197188038
 10
13.22582440454498
 20
5.596162193649671
 10
13.24491061799155
 20
5.640578243980517
 10
13.26347292876395
 20
5.683209415510411
 10
13.28111831514639
 20
5.723234376915011
 10
13.2978105669261
 20
5.760662189491162
 10
13.31351568066859
 20
5.795501324773918
 10
13.32820188619326
 20
5.827759667290507
 10
13.33900694691801
 20
5.851299778356659
 10
13.34920309835368
 20
5.873366007556757
 10
13.35947177363403
 20
5.895447223009538
 10
13.37003110591905
 20
5.91800741259423
 10
13.38088516931582
 20
5.941045551555216
 10
13.40619758556577
 20
5.994188771637424
 10
13.43304761627112
 20
6.049696252148693
 10
13.46148575457953
 20
6.107555552098001
 10
13.49156487556815
 20
6.167753707816016
 10
13.51770139970752
 20
6.219259887461195
 10
13.54502895957076
 20
6.272346472622904
 10
13.57358130276397
 20
6.327005214281784
 10
13.6033938685439
 20
6.383227487329734
 10
13.63450359096598
 20
6.441004458084395
 10
13.66694881162223
 20
6.500327029424396
 10
13.70067054322216
 20
6.561009317012364
 10
13.72715808632368
 20
6.607999496047807
 10
13.75337007118108
 20
6.653302876749807
 10
13.78054054985877
 20
6.696213445336097
 10
13.80883782187511
 20
6.736937845222998
 10
13.83810003457951
 20
6.775502961112583
 10
13.86816801444797
 20
6.811939493592257
 10
13.89888869452617
 20
6.846283098603008
 10
13.93369103721657
 20
6.88211715642608
 10
13.96892856965092
 20
6.915472105066153
 10
14.00441646597984
 20
6.946419090844954
 10
14.03998052583533
 20
6.975036546562769
 10
14.06229974999749
 20
6.991869690380783
 10
14.07830148726556
 20
7.003355305563746
  0
LWPOLYLINE
  5
CD
330
1F
100
AcDbEntity
  8
0
  6
CONTINUOUS
 62
     7
100
AcDbPolyline
 90
       42
 70
   128
 43
0.0
 10
3.49786613573355
 20
7.003355305563746
 10
3.506758033326262
 20
6.997104868110552
 10
3.531304213078824
 20
6.978895948274775
 10
3.556660672775583
 20
6.959003752972988
 10
3.582718663954974
 20
6.93733870422052
 10
3.613138721421706
 20
6.910354785992043
 10
3.644126863255883
 20
6.880817616312113
 10
3.675475508070566
 20
6.848599379173158
 10
3.706660860758573
 20
6.81392282552762
 10
3.736544272979057
 20
6.77789226818573
 10
3.764503987458152
 20
6.74131596575163
 10
3.791045529943095
 20
6.703603157212965
 10
3.816130167301248
 20
6.664794217476745
 10
3.839758095537658
 20
6.62488674553618
 10
3.921914447218503
 20
6.477843314779478
 10
4.001961743615155
 20
6.32887143709259
 10
4.027071155991931
 20
6.280895444079456
 10
4.051960737545917
 20
6.232720578287231
 10
4.077017461206895
 20
6.183577293698625
 10
4.102782341542234
 20
6.1323429117331
 10
4.129221647797945
 20
6.078998627386483
 10
4.155806780892773
 20
6.02454367233381
 10
4.182965132445855
 20
5.968034366944389
 10
4.210656553296098
 20
5.909460770207799
 10
4.238839628438166
 20
5.848812676214206
 10
4.272972286231547
 20
5.773893101645253
 10
4.307665872942695
 20
5.69600003888149
 10
4.34284310656997
 20
5.615114322218603
 10
4.378424258955973
 20
5.531216191664942
 10
4.414326884038597
 20
5.44428509720647
 10
4.450466412027025
 20
5.354299665311192
 10
4.486756485893485
 20
5.261237777409781
 10
4.523108721201524
 20
5.165076627569455
 10
4.559432496437401
 20
5.06579225270971
 10
4.595636121561392
 20
4.963359643277152
 10
4.63162732860341
 20
4.857752846763725
 10
4.667312818392376
 20
4.74894481916416
 10
4.700595126898039
 20
4.643396660383254
 10
4.733444738674777
 20
4.534952342829543
 10
4.76578392772842
 20
4.423585491150006
 10
4.797536541685191
 20
4.309268282636242
 10
4.817713259190821
 20
4.23315123673145
  0
LINE
  5
CE
330
1F
100
AcDbEntity
  8
0
  6
CONTINUOUS
 62
     7
100
AcDbLine
 10
5.244944070071936
 20
4.220884322932233
 30
0.0
 11
8.376718165473388
 21
4.158248841024211
 31
0.0
  0
LINE
  5
CF
330
1F
100
AcDbEntity
  8
0
  6
CONTINUOUS
 62
     7
100
AcDbLine
 10
9.199805004861245
 20
4.158248841024211
 30
0.0
 11
12.3314405931661
 21
4.220881552790301
 31
0.0
  0
ARC
  5
D0
330
1F
100
AcDbEntity
  8
0
  6
CONTINUOUS
 62
     7
100
AcDbCircle
 10
9.202071218330532
 20
4.04493816755981
 30
0.0
 40
0.1133333333333335
100
AcDbArc
 50
91.1457628381747
 51
126.2391284063523
  0
ARC
  5
D1
330
1F
100
AcDbEntity
  8
0
  6
CONTINUOUS
 62
     7
100
AcDbCircle
 10
8.374451952004099
 20
4.04493816755981
 30
0.0
 40
0.1133333333333335
100
AcDbArc
 50
53.76087159364767
 51
88.8542371618244
  0
ARC
  5
D2
330
1F
100
AcDbEntity
  8
0
  6
CONTINUOUS
 62
     7
100
AcDbCircle
 10
8.788261585167315
 20
4.609527919062018
 30
0.0
 40
0.586666666666667
100
AcDbArc
 50
287.1847959010884
 51
306.2391284063527
  0
ARC
  5
D3
330
1F
100
AcDbEntity
  8
0
  6
CONTINUOUS
 62
     7
100
AcDbCircle
 10
8.788261585167315
 20
4.609527919062018
 30
0.0
 40
0.586666666666667
100
AcDbArc
 50
233.7608715936489
 51
252.8152040989132
  0
LINE
  5
D4
330
1F
100
AcDbEntity
  8
0
  6
CONTINUOUS
 62
     7
100
AcDbLine
 10
12.27306678107679
 20
7.003355305563746
 30
0.0
 11
12.27306678107679
 21
7.23668863889708
 31
0.0
  0
ARC
  5
D5
330
1F
100
AcDbEntity
  8
0
  6
CONTINUOUS
 62
     7
100
AcDbCircle
 10
12.50251951988449
 20
10.48288307437828
 30
0.0
 40
3.247042997279902
100
AcDbArc
 50
269.5475607757791
 51
270.4493768193009
  0
ELLIPSE
  5
D6
330
1F
100
AcDbEntity
  8
0
  6
CONTINUOUS
 62
     7
100
AcDbEllipse
 10
12.27306678107679
 20
7.224120430551288
 30
0.0
 11
0.5999999855605811
 21
0.0088890148563383
 31
0.0
210
0.0
220
0.0
230
1.0
 40
0.0148085260451554
 41
0.78517877471555
 42
1.131763492346573
  0
LINE
  5
D7
330
1F
100
AcDbEntity
  8
0
  6
CONTINUOUS
 62
     7
100
AcDbLine
 10
12.69733084978871
 20
7.23668863889708
 30
0.0
 11
12.69733084978871
 21
7.003355305563746
 31
0.0
  0
LINE
  5
D8
330
1F
100
AcDbEntity
  8
0
  6
CONTINUOUS
 62
     7
100
AcDbLine
 10
12.69733084978871
 20
7.003355305563746
 30
0.0
 11
12.27306678107679
 21
7.003355305563746
 31
0.0
  0
ELLIPSE
  5
D9
330
1F
100
AcDbEntity
  8
0
  6
CONTINUOUS
 62
     7
100
AcDbEllipse
 10
12.27306678107679
 20
7.224120430551288
 30
0.0
 11
0.6000000000000015
 21
0.0
 31
0.0
210
0.0
220
0.0
230
1.0
 40
0.0209470139096534
 41
1.224211609163976
 42
1.570796326794896
  0
LINE
  5
DA
330
1F
100
AcDbEntity
  8
0
  6
CONTINUOUS
 62
     7
100
AcDbLine
 10
5.303456389257835
 20
7.003355305563746
 30
0.0
 11
12.27306678107679
 21
7.003355305563746
 31
0.0
  0
LINE
  5
DB
330
1F
100
AcDbEntity
  8
0
  6
CONTINUOUS
 62
     7
100
AcDbLine
 10
5.303456389257835
 20
7.23668863889708
 30
0.0
 11
5.303456389257835
 21
7.003355305563746
 31
0.0
  0
LINE
  5
DC
330
1F
100
AcDbEntity
  8
0
  6
CONTINUOUS
 62
     7
100
AcDbLine
 10
5.303456389257835
 20
7.23668863889708
 30
0.0
 11
12.27306678107679
 21
7.23668863889708
 31
0.0
  0
LINE
  5
DD
330
1F
100
AcDbEntity
  8
0
  6
CONTINUOUS
 62
     7
100
AcDbLine
 10
4.879192320545906
 20
7.003355305563746
 30
0.0
 11
4.879192320545906
 21
7.23668863889708
 31
0.0
  0
LINE
  5
E0
330
1F
100
AcDbEntity
  8
0
  6
CONTINUOUS
 62
     7
100
AcDbLine
 10
5.303456389257835
 20
7.003355305563746
 30
0.0
 11
4.879192320545906
 21
7.003355305563746
 31
0.0
  0
LINE
  5
E2
330
1F
100
AcDbEntity
  8
0
  6
CONTINUOUS
 62
     7
100
AcDbLine
 10
15.62834118184519
 20
7.23668863889708
 30
0.0
 11
15.62834118184518
 21
7.003355305563746
 31
0.0
  0
LINE
  5
E3
330
1F
100
AcDbEntity
  8
0
  6
CONTINUOUS
 62
     7
100
AcDbLine
 10
12.69733084978871
 20
7.23668863889708
 30
0.0
 11
15.62834118184519
 21
7.23668863889708
 31
0.0
  0
LINE
  5
E4
330
1F
100
AcDbEntity
  8
0
  6
CONTINUOUS
 62
     7
100
AcDbLine
 10
12.69733084978871
 20
7.003355305563746
 30
0.0
 11
15.62834118184518
 21
7.003355305563746
 31
0.0
  0
LINE
  5
E5
330
1F
100
AcDbEntity
  8
0
  6
CONTINUOUS
 62
     7
100
AcDbLine
 10
1.948181988489441
 20
7.23668863889708
 30
0.0
 11
1.948181988489441
 21
7.003355305563746
 31
0.0
  0
LINE
  5
E6
330
1F
100
AcDbEntity
  8
0
  6
CONTINUOUS
 62
     7
100
AcDbLine
 10
1.948181988489441
 20
7.23668863889708
 30
0.0
 11
4.879192320545906
 21
7.23668863889708
 31
0.0
  0
LINE
  5
E7
330
1F
100
AcDbEntity
  8
0
  6
CONTINUOUS
 62
     7
100
AcDbLine
 10
1.948181988489441
 20
7.003355305563746
 30
0.0
 11
4.879192320545906
 21
7.003355305563746
 31
0.0
  0
LWPOLYLINE
  5
E8
330
1F
100
AcDbEntity
  8
0
  6
CONTINUOUS
 62
     7
100
AcDbPolyline
 90
       21
 70
   128
 43
0.0
 10
11.95286440603758
 20
4.213816367780571
 10
11.97297884159447
 20
4.490917312950443
 10
11.99190675258019
 20
4.764659004237482
 10
12.01104572571891
 20
5.035435784948298
 10
12.03199076302515
 20
5.304111497706484
 10
12.05663627383545
 20
5.571617419530769
 10
12.08691132468012
 20
5.838862291146807
 10
12.11258005047222
 20
6.026153328155103
 10
12.14276791388763
 20
6.213557063599806
 10
12.17818137002519
 20
6.400947561150394
 10
12.19140563966024
 20
6.464023444507752
 10
12.20532872316221
 20
6.527078823156832
 10
12.21997710183826
 20
6.590108953087185
 10
12.23553376668395
 20
6.651888346247165
 10
12.25418622931147
 20
6.708805702385084
 10
12.27736908415512
 20
6.76388517422344
 10
12.30494261853538
 20
6.816892914254673
 10
12.33881729969444
 20
6.870584247563567
 10
12.37725615451188
 20
6.921373450533842
 10
12.42003917521834
 20
6.968938056261351
 10
12.45671159985768
 20
7.003355305563746
  0
ARC
  5
E9
330
1F
100
AcDbEntity
  8
0
  6
CONTINUOUS
 62
     7
100
AcDbCircle
 10
18.20674517746707
 20
-363.6107850099671
 30
0.0
 40
367.8777628552754
100
AcDbArc
 50
90.97406875627406
 51
91.0847951439649
  0
LWPOLYLINE
  5
EA
330
1F
100
AcDbEntity
  8
0
  6
CONTINUOUS
 62
     7
100
AcDbPolyline
 90
       29
 70
   128
 43
0.0
 10
11.95286440533077
 20
4.213816367764757
 10
12.14212661376176
 20
4.217230545578753
 10
12.18893645652907
 20
4.218111855148392
 10
12.23440748821287
 20
4.218980148490576
 10
12.27835470915534
 20
4.219832298712217
 10
12.32059311969865
 20
4.220665178920224
 10
12.36205518135314
 20
4.22149840468825
 10
12.40171014780239
 20
4.222312558791385
 10
12.43949948689516
 20
4.223107075298185
 10
12.4753646664802
 20
4.223881388277209
 10
12.5098881328042
 20
4.22464933151428
 10
12.54237911184082
 20
4.225396792967644
 10
12.57275636326961
 20
4.226122619834947
 10
12.60093864677011
 20
4.226825659313837
 10
12.6217588625798
 20
4.227368382305058
 10
12.64115941357181
 20
4.227896640547802
 10
12.65911822302215
 20
4.228410131232782
 10
12.67573225233597
 20
4.228912230913515
 10
12.6908630012193
 20
4.229399324961115
 10
12.70449290775633
 20
4.229871128491902
 10
12.71685910838305
 20
4.230337370417059
 10
12.72764284944232
 20
4.230787645711972
 10
12.73683056910264
 20
4.231221670525033
 10
12.74446468384818
 20
4.231642435828391
 10
12.75046870539423
 20
4.232046703531648
 10
12.7548354609167
 20
4.232434227711578
 10
12.75749304864303
 20
4.232792281547367
 10
12.7586228915355
 20
4.233134757049712
 10
12.75851113668776
 20
4.233226529368344
  0
LWPOLYLINE
  5
EB
330
1F
100
AcDbEntity
  8
0
  6
CONTINUOUS
 62
     7
100
AcDbPolyline
 90
       23
 70
   128
 43
0.0
 10
5.119811570469203
 20
7.003355305563746
 10
5.156483995118835
 20
6.968938056255778
 10
5.199267015820606
 20
6.921373450549304
 10
5.237705870637091
 20
6.870584247601414
 10
5.271580551798059
 20
6.816892914281264
 10
5.300685532756926
 20
6.76060357750303
 10
5.324841794886044
 20
6.702000147641459
 10
5.343790348911553
 20
6.641674655275613
 10
5.359535033163184
 20
6.57750517363355
 10
5.374293156155247
 20
6.513323275595335
 10
5.388305345530085
 20
6.449116272814971
 10
5.401599590851875
 20
6.384889179394822
 10
5.414204025507507
 20
6.320647032598161
 10
5.426146893789674
 20
6.256394884881405
 10
5.437456526140449
 20
6.192137798733233
 10
5.465524923362983
 20
6.01544675011638
 10
5.489611845665737
 20
5.838862290958215
 10
5.519886896469486
 20
5.571617419933354
 10
5.544532407243554
 20
5.304111498284655
 10
5.565477444571471
 20
5.03543578523354
 10
5.584616417784085
 20
4.764659004163871
 10
5.60354432874046
 20
4.490917312975455
 10
5.623658764296036
 20
4.213816367780588
  0
ARC
  5
EC
330
1F
100
AcDbEntity
  8
0
  6
CONTINUOUS
 62
     7
100
AcDbCircle
 10
-0.5717456619458283
 20
-360.176269566785
 30
0.0
 40
364.4427496375868
100
AcDbArc
 50
88.91417401469414
 51
89.02594405939204
  0
LWPOLYLINE
  5
ED
330
1F
100
AcDbEntity
  8
0
  6
CONTINUOUS
 62
     7
100
AcDbPolyline
 90
       13
 70
   128
 43
0.0
 10
11.24204075904448
 20
4.20100969399909
 10
10.62800264687773
 20
4.189295471095354
 10
10.01395408748299
 20
4.178133347461334
 10
9.706909339255359
 20
4.172862537894672
 10
9.399850731946541
 20
4.168241299892805
 10
9.092780061071911
 20
4.164966633793607
 10
8.785699122146848
 20
4.163735539934946
 10
8.479279698704889
 20
4.16500096229416
 10
8.172870684153464
 20
4.168290449632829
 10
7.866473718707454
 20
4.172912760688546
 10
7.560090442581741
 20
4.178176654198906
 10
6.947281236909032
 20
4.189318961910181
 10
6.334482411286991
 20
4.201009693999151
  0
LWPOLYLINE
  5
EE
330
1F
100
AcDbEntity
  8
0
  6
CONTINUOUS
 62
     7
100
AcDbPolyline
 90
       38
 70
   128
 43
0.0
 10
8.788261585167315
 20
6.695825103026615
 10
8.800220050197399
 20
6.696232001525088
 10
8.812121527695758
 20
6.697450757963864
 10
8.823909301702212
 20
6.699475564413488
 10
8.835527198105493
 20
6.70229677174914
 10
8.846919852338485
 20
6.705900935633094
 10
8.858032973215577
 20
6.710270880583115
 10
8.868813601654903
 20
6.715385781821455
 10
8.879210363052477
 20
6.721221264514398
 10
8.889173712105582
 20
6.727749519929451
 10
8.898656168918698
 20
6.734939437956607
 10
8.907612545266816
 20
6.7427567553622
 10
8.916000159937935
 20
6.751164219068801
 10
8.923779042128442
 20
6.760121763683113
 10
8.930912121922217
 20
6.769586702425804
 10
8.937365406945655
 20
6.779513930553456
 10
8.943108144356813
 20
6.789856140303205
 10
8.948112967396697
 20
6.800564046335779
 10
8.952356025804336
 20
6.811586620602577
 10
8.95581709947414
 20
6.822871335517564
 10
8.958479694813911
 20
6.834364414275144
 10
8.960331123344312
 20
6.846011087121111
 10
8.961362562165261
 20
6.857755852355494
 10
8.961569096001063
 20
6.869542740823413
 10
8.960949740623934
 20
6.881315582633595
 10
8.959507447544298
 20
6.893018274833496
 10
8.957249089945499
 20
6.904595048765406
 10
8.954185429929943
 20
6.915990735829503
 10
8.950331067232788
 20
6.927151030387361
 10
8.945704369647552
 20
6.938022748553042
 10
8.940327385495219
 20
6.948554081638532
 10
8.934225738553937
 20
6.958694843045737
 10
8.927428505950055
 20
6.968396707428473
 10
8.919968079592376
 20
6.977613440984751
 10
8.911880011809952
 20
6.9863011217819
 10
8.903202845929053
 20
6.994418349064572
 10
8.89397793259666
 20
7.001926440548202
 10
8.892066234086376
 20
7.003355305563746
  0
ARC
  5
EF
330
1F
100
AcDbEntity
  8
0
  6
CONTINUOUS
 62
     7
100
AcDbCircle
 10
8.785253051062916
 20
6.866447580044641
 30
0.0
 40
0.1706489992388589
100
AcDbArc
 50
126.2040978548276
 51
271.010174324219
  0
LWPOLYLINE
  5
F0
330
1F
100
AcDbEntity
  8
0
  6
CONTINUOUS
 62
     7
100
AcDbPolyline
 90
       32
 70
   128
 43
0.0
 10
4.818024678576684
 20
4.233233937675143
 10
4.817902852475556
 20
4.233132452231276
 10
4.819055609131264
 20
4.232787596178686
 10
4.821755957953166
 20
4.23242696043883
 10
4.826114516469026
 20
4.232042124632632
 10
4.832085523471067
 20
4.231640800094386
 10
4.839661953908205
 20
4.231223227249672
 10
4.848914143702005
 20
4.230786149163227
 10
4.859784884777735
 20
4.230332590724189
 10
4.872260316433927
 20
4.229862841832915
 10
4.885784531878584
 20
4.229395179635996
 10
4.900781989761803
 20
4.228912508545214
 10
4.917235603814313
 20
4.228415105646568
 10
4.935264888543504
 20
4.227899397755644
 10
4.954749114298519
 20
4.227368787003828
 10
4.975665904888529
 20
4.226823580364815
 10
4.99850156927471
 20
4.22625157076963
 10
5.022801075653596
 20
4.225664423112302
 10
5.048514133431238
 20
4.225062897099523
 10
5.07580255320073
 20
4.224442991938478
 10
5.104471275193064
 20
4.223808939537432
 10
5.134488398695155
 20
4.223161088676373
 10
5.168034454382842
 20
4.222453593800541
 10
5.203084136243821
 20
4.221730239372786
 10
5.23959575200394
 20
4.2209914182295
 10
5.27785752312588
 20
4.22023099721204
 10
5.317554654694034
 20
4.219454868395408
 10
5.35863286571891
 20
4.21866357943017
 10
5.401753975406239
 20
4.217843883743268
 10
5.445906962373476
 20
4.217015752030893
 10
5.490392162370516
 20
4.216193902028444
 10
5.623658765002847
 20
4.213816367764776
  0
LINE
  5
F2
330
1F
100
AcDbEntity
  8
0
  6
CONTINUOUS
 62
     7
100
AcDbLine
 10
8.788261585167315
 20
4.049051930875786
 30
0.0
 11
8.614928251833982
 21
4.049051930875786
 31
0.0
  0
LINE
  5
F3
330
1F
100
AcDbEntity
  8
0
  6
CONTINUOUS
 62
     7
100
AcDbLine
 10
8.961594918500649
 20
4.049051930875786
 30
0.0
 11
8.788261585167315
 21
4.049051930875786
 31
0.0
  0
LINE
  5
F4
330
1F
100
AcDbEntity
  8
0
  6
CONTINUOUS
 62
     7
100
AcDbLine
 10
5.303456389257835
 20
7.23668863889708
 30
0.0
 11
4.879192320545906
 21
7.23668863889708
 31
0.0
  0
LINE
  5
F5
330
1F
100
AcDbEntity
  8
0
  6
CONTINUOUS
 62
     7
100
AcDbLine
 10
12.69733084978872
 20
7.23668863889708
 30
0.0
 11
12.27306678107679
 21
7.23668863889708
 31
0.0
  0
LWPOLYLINE
  5
F6
330
1F
100
AcDbEntity
  8
0
  6
CONTINUOUS
 62
     7
100
AcDbPolyline
 90
       44
 70
   128
 43
0.0
 10
12.3163633070915
 20
7.003355305563746
 10
12.29529506196606
 20
6.985081748863453
 10
12.23739134357348
 20
6.927313340054565
 10
12.1842780058276
 20
6.865526788231604
 10
12.13556163478185
 20
6.799133566680494
 10
12.1233323202432
 20
6.780624304160277
 10
12.11148359890162
 20
6.761850300834924
 10
12.1000154707571
 20
6.742811556704435
 10
12.08988055457303
 20
6.72519822585916
 10
12.08421291858919
 20
6.714737993367984
 10
12.07923688744169
 20
6.705293525296586
 10
12.07325971462748
 20
6.693795059417026
 10
12.06628140014654
 20
6.680242595729303
 10
12.05830194399888
 20
6.664636134233417
 10
12.0493213461845
 20
6.64697567492937
 10
12.03933960670339
 20
6.627261217817159
 10
11.97425369734787
 20
6.497586401648892
 10
11.91363394554423
 20
6.374971511629216
 10
11.85748035129247
 20
6.259416547758131
 10
11.8057929145926
 20
6.150921510035637
 10
11.76400237582363
 20
6.061285847749956
 10
11.72567042946284
 20
5.977117392273743
 10
11.71854734666443
 20
5.961226734472704
 10
11.71155771083074
 20
5.945547024383382
 10
11.70470152196178
 20
5.930078262005779
 10
11.69797878005755
 20
5.914820447339892
 10
11.69138948511805
 20
5.899773580385723
 10
11.68493363714328
 20
5.884937661143271
 10
11.67861123613324
 20
5.870312689612537
 10
11.67242228208793
 20
5.855898665793519
 10
11.62332819249374
 20
5.738331185081866
 10
11.57723509992398
 20
5.622122675784711
 10
11.53414300437864
 20
5.507273137902054
 10
11.49405190585774
 20
5.393782571433895
 10
11.45696180436126
 20
5.281650976380235
 10
11.4228726998892
 20
5.170878352741072
 10
11.39178459244157
 20
5.061464700516407
 10
11.36155205604083
 20
4.944796122376585
 10
11.33294512001548
 20
4.821643185052138
 10
11.30787499061434
 20
4.699011218149562
 10
11.28680793740773
 20
4.579477120827638
 10
11.26928884394354
 20
4.459480034344148
 10
11.25436645115579
 20
4.333324225401298
 10
11.24204075904448
 20
4.201009693999088
  0
LWPOLYLINE
  5
F7
330
1F
100
AcDbEntity
  8
0
  6
CONTINUOUS
 62
     7
100
AcDbPolyline
 90
       48
 70
   128
 43
0.0
 10
6.334482411286991
 20
4.201009693999147
 10
6.324102851162375
 20
4.314536822553861
 10
6.311822810198486
 20
4.423571506899954
 10
6.297642288395326
 20
4.528113747037425
 10
6.281545420025818
 20
4.628254945143274
 10
6.262082125817507
 20
4.732810647395394
 10
6.240442625742366
 20
4.835895014479239
 10
6.216302097594095
 20
4.939371547362822
 10
6.189660541372694
 20
5.043240246046141
 10
6.162846814781001
 20
5.139456470331164
 10
6.123556658122939
 20
5.269093294837355
 10
6.080131307118021
 20
5.400611365269438
 10
6.032570761766247
 20
5.534010681627412
 10
5.963459032317997
 20
5.712978342981662
 10
5.95628269756039
 20
5.730732300775918
 10
5.949036861473206
 20
5.748517877179155
 10
5.941721524056443
 20
5.766335072191372
 10
5.934336685310103
 20
5.78418388581257
 10
5.926882345234186
 20
5.80206431804275
 10
5.919358503828689
 20
5.819976368881909
 10
5.911765161093616
 20
5.837920038330049
 10
5.904102317028963
 20
5.85589532638717
 10
5.866460276166342
 20
5.942183971158105
 10
5.824349225514461
 20
6.035538353011925
 10
5.777769165073323
 20
6.135958471948632
 10
5.726720094842925
 20
6.243444327968225
 10
5.6781001481425
 20
6.343876658980429
 10
5.626019400261274
 20
6.449780696789622
 10
5.577325567389036
 20
6.547502445924179
 10
5.570750535530911
 20
6.560613114871364
 10
5.564129544860914
 20
6.573796447092217
 10
5.557462595379048
 20
6.587052442586732
 10
5.550749687085309
 20
6.600381101354911
 10
5.543990819979699
 20
6.613782423396756
 10
5.537185994062217
 20
6.627256408712264
 10
5.521527243306032
 20
6.658144892940922
 10
5.508491484338832
 20
6.683651602765933
 10
5.498078717160616
 20
6.703776538187298
 10
5.490288941771384
 20
6.718519699205019
 10
5.483496036940771
 20
6.730754255338888
 10
5.471590383853343
 20
6.751087190034375
 10
5.441792693472477
 20
6.797899989702618
 10
5.410071788018896
 20
6.842464720465176
 10
5.380377654820845
 20
6.880187860595486
 10
5.34900644462872
 20
6.91653102326724
 10
5.315958157442522
 20
6.951494208480434
 10
5.281232793262249
 20
6.985077416235069
 10
5.259889956287826
 20
7.003355305563746
  0
LINE
  5
F9
330
1F
100
AcDbEntity
  8
0
  6
CONTINUOUS
 62
     7
100
AcDbLine
 10
8.788261585167315
 20
4.15824884102421
 30
0.0
 11
8.376718165473388
 21
4.158248841024211
 31
0.0
  0
LINE
  5
FA
330
1F
100
AcDbEntity
  8
0
  6
CONTINUOUS
 62
     7
100
AcDbLine
 10
9.199805004861245
 20
4.158248841024211
 30
0.0
 11
8.788261585167315
 21
4.15824884102421
 31
0.0
  0
LINE
  5
FB
330
1F
100
AcDbEntity
  8
0
  6
CONTINUOUS
 62
     7
100
AcDbLine
 10
8.441449702135287
 20
4.136347936850643
 30
0.0
 11
9.135073468199344
 21
4.136347936850643
 31
0.0
  0
POINT
  5
15F
330
1F
100
AcDbEntity
  8
REMARKS
  6
CONTINUOUS
 62
     7
100
AcDbPoint
 10
8.788261585167315
 20
16.50336578211255
 30
0.0
  0
POINT
  5
160
330
1F
100
AcDbEntity
  8
REMARKS
  6
CONTINUOUS
 62
     7
100
AcDbPoint
 10
12.74318973507269
 20
12.54281848184819
 30
0.0
  0
POINT
  5
161
330
1F
100
AcDbEntity
  8
REMARKS
  6
CONTINUOUS
 62
     7
100
AcDbPoint
 10
4.833333193295243
 20
12.54281848184819
 30
0.0
  0
POINT
  5
162
330
1F
100
AcDbEntity
  8
REMARKS
  6
CONTINUOUS
 62
     7
100
AcDbPoint
 10
12.07609917090697
 20
15.81811954273504
 30
0.0
  0
POINT
  5
163
330
1F
100
AcDbEntity
  8
REMARKS
  6
CONTINUOUS
 62
     7
100
AcDbPoint
 10
8.788261585167317
 20
10.63374528423985
 30
0.0
  0
POINT
  5
164
330
1F
100
AcDbEntity
  8
REMARKS
  6
CONTINUOUS
 62
     7
100
AcDbPoint
 10
13.2010415900112
 20
10.33663665057759
 30
0.0
  0
LWPOLYLINE
  5
165
330
1F
100
AcDbEntity
  8
0
  6
CONTINUOUS
 62
     7
100
AcDbPolyline
 90
       43
 70
   128
 43
0.0
 10
14.56813149004416
 20
13.03633755763319
 10
14.55394312680714
 20
13.09224816308483
 10
14.53754887757126
 20
13.14764902593899
 10
14.51897695562673
 20
13.20240505512116
 10
14.49825557426374
 20
13.25638115955679
 10
14.47541294677249
 20
13.30944224817137
 10
14.45047728644317
 20
13.36145322989036
 10
14.42011531493805
 20
13.418310807132
 10
14.38716010969475
 20
13.47378399347046
 10
14.35172097957527
 20
13.52770489949306
 10
14.31390723344165
 20
13.57990563578713
 10
14.28076811388235
 20
13.62153762691021
 10
14.24597917726574
 20
13.66184103283239
 10
14.20989775984529
 20
13.70105122725324
 10
14.17288119787447
 20
13.73940358387231
 10
14.13528682760675
 20
13.77713347638916
 10
13.97540753223277
 20
13.93559420684066
 10
13.62656646580055
 20
14.2798529905986
 10
13.17328241910132
 20
14.72652882867965
 10
12.70728789526424
 20
15.18821735677413
 10
12.24280384371335
 20
15.65142919553982
 10
11.77937106237093
 20
16.11569666259268
 10
11.31653034915925
 20
16.58055207554865
 10
10.85370432197199
 20
17.04541325122349
 10
10.57006882542582
 20
17.32981651144253
 10
10.28629471195346
 20
17.61408145104209
 10
10.00245881831146
 20
17.89828469069642
 10
9.966753755526202
 20
17.93368495028744
 10
9.93043003636412
 20
17.96847392856096
 10
9.893213754590272
 20
18.00227272814065
 10
9.854831003969716
 20
18.03470245165015
 10
9.814587829635975
 20
18.06609937817508
 10
9.773215979878083
 20
18.09604962726732
 10
9.730795150653872
 20
18.12449407330102
 10
9.687405037921172
 20
18.15137359065033
 10
9.64024695240494
 20
18.17821003926729
 10
9.592069547261461
 20
18.20325404298067
 10
9.542983899713421
 20
18.22646962258464
 10
9.493101086983507
 20
18.24782079887333
 10
9.441291336550806
 20
18.26773128001839
 10
9.38873741544962
 20
18.28570283878578
 10
9.33555501056726
 20
18.30172359347332
 10
9.28185980879104
 20
18.3157816623788
  0
LINE
  5
167
330
1F
100
AcDbEntity
  8
0
  6
CONTINUOUS
 62
     7
100
AcDbLine
 10
15.62834118184519
 20
12.54281848184819
 30
0.0
 11
8.788261585167315
 21
19.38289807852605
 31
0.0
  0
LWPOLYLINE
  5
16E
330
1F
100
AcDbEntity
  8
0
  6
CONTINUOUS
 62
     7
100
AcDbPolyline
 90
       42
 70
   128
 43
0.0
 10
8.294663361543591
 20
18.3157816623788
 10
8.231678208583971
 20
18.29907534334378
 10
8.169409825562842
 20
18.27965986903742
 10
8.108046415436584
 20
18.25755771528945
 10
8.047776181161573
 20
18.23279135792954
 10
7.986728676766725
 20
18.20437597917986
 10
7.927009655028875
 20
18.17310333954642
 10
7.86882692569772
 20
18.13906104417613
 10
7.812388298522964
 20
18.1023366982159
 10
7.766375472658269
 20
18.06930231593513
 10
7.721728697363117
 20
18.03435232911045
 10
7.678428392819255
 20
17.99769130030556
 10
7.63645497920844
 20
17.95952379208419
 10
7.595788876712424
 20
17.92005436701005
 10
7.396742615606275
 20
17.72069561044905
 10
7.190722387198511
 20
17.51443575711692
 10
7.048455281447306
 20
17.37190629942707
 10
6.743700855556807
 20
17.06636320723514
 10
6.291034400638234
 20
16.61174775661759
 10
5.838431594361632
 20
16.15706905918418
 10
5.337778518292847
 20
15.65546566101907
 10
4.835864154637895
 20
15.15512349498656
 10
4.332249582095656
 20
14.65649664658173
 10
4.041801872363716
 20
14.37032293520892
 10
3.751405217128266
 20
14.08409743255099
 10
3.461562298993638
 20
13.79731077161472
 10
3.425320814853826
 20
13.76140759866299
 10
3.389307966634119
 20
13.72526013739275
 10
3.354007319109359
 20
13.68844792022511
 10
3.319902437054385
 20
13.65055047958118
 10
3.28687924424255
 20
13.61093635851425
 10
3.255273865690464
 20
13.57013988192807
 10
3.225158948051782
 20
13.52823252765473
 10
3.196607137980159
 20
13.48528577352633
 10
3.165289756958822
 20
13.43385234731819
 10
3.136165089510332
 20
13.38108437018417
 10
3.109299140590548
 20
13.32713078650106
 10
3.084757915155331
 20
13.27214054064565
 10
3.061933231301658
 20
13.21448829322049
 10
3.041579599398838
 20
13.15585892392797
 10
3.023723566658049
 20
13.09641961724117
 10
3.008391680290466
 20
13.03633755763318
  0
LINE
  5
170
330
1F
100
AcDbEntity
  8
0
  6
CONTINUOUS
 62
     7
100
AcDbLine
 10
8.788261585167315
 20
19.38289807852605
 30
0.0
 11
1.948181988489441
 21
12.54281848184819
 31
0.0
  0
LINE
  5
177
330
1F
100
AcDbEntity
  8
0
  6
CONTINUOUS
 62
     7
100
AcDbLine
 10
12.52473599716519
 20
10.10445251543247
 30
0.0
 11
12.69953358553556
 21
10.10400108078904
 31
0.0
  0
LINE
  5
178
330
1F
100
AcDbEntity
  8
0
  6
CONTINUOUS
 62
     7
100
AcDbLine
 10
12.73117318495056
 20
10.10471426025208
 30
0.0
 11
12.69953358553555
 21
10.10400108078904
 31
0.0
  0
LWPOLYLINE
  5
179
330
1F
100
AcDbEntity
  8
0
  6
CONTINUOUS
 62
     7
100
AcDbPolyline
 90
        8
 70
   128
 43
0.0
 10
13.03223303916477
 20
10.15837257158012
 10
13.03171646576298
 20
10.15824460089081
 10
12.96690944659146
 20
10.14261974284003
 10
12.90177638681465
 20
10.12831228937745
 10
12.85955951412667
 20
10.12019968922941
 10
12.81712956459283
 20
10.11330865454048
 10
12.774251079125
 20
10.10796826806839
 10
12.73117318495055
 20
10.10471426025208
  0
LWPOLYLINE
  5
17A
330
1F
100
AcDbEntity
  8
0
  6
CONTINUOUS
 62
     7
100
AcDbPolyline
 90
       20
 70
   128
 43
0.0
 10
13.03223303916494
 20
10.1583725715801
 10
13.24013498141662
 20
10.37776323816359
 10
13.44884327008851
 20
10.59638713166538
 10
13.72634222706822
 20
10.88500395341176
 10
13.86545306611626
 20
11.02896619502825
 10
14.00479837346146
 20
11.17269724208577
 10
14.14436083175027
 20
11.31618097302069
 10
14.19023400152332
 20
11.36479538824312
 10
14.23437201077572
 20
11.41501280767179
 10
14.27641794111589
 20
11.46695287156918
 10
14.314861119693
 20
11.51885785098689
 10
14.35112274791673
 20
11.57237920703059
 10
14.38509086486613
 20
11.62738252914786
 10
14.41665350962019
 20
11.68373340678625
 10
14.44660890684497
 20
11.74313078887629
 10
14.47398761944948
 20
11.80382612852235
 10
14.49875246093571
 20
11.865636760651
 10
14.52086624480562
 20
11.92838002018882
 10
14.53933694912319
 20
11.98845539802274
 10
14.55546761941223
 20
12.04920091138233
  0
LINE
  5
17C
330
1F
100
AcDbEntity
  8
0
  6
CONTINUOUS
 62
     7
100
AcDbLine
 10
12.69733084978871
 20
9.611808149791723
 30
0.0
 11
15.62834118184519
 21
12.54281848184819
 31
0.0
  0
ARC
  5
17D
330
1F
100
AcDbEntity
  8
0
  6
CONTINUOUS
 62
     7
100
AcDbCircle
 10
12.27306678107679
 20
10.03607221850365
 30
0.0
 40
0.5999999999999989
100
AcDbArc
 50
295.142158436014
 51
315.0000000000007
  0
ARC
  5
183
330
1F
100
AcDbEntity
  8
0
  6
CONTINUOUS
 62
     7
100
AcDbCircle
 10
5.303456389257835
 20
10.03607221850365
 30
0.0
 40
0.6000000000000031
100
AcDbArc
 50
225.000000000001
 51
244.8578415639867
  0
LINE
  5
184
330
1F
100
AcDbEntity
  8
0
  6
CONTINUOUS
 62
     7
100
AcDbLine
 10
1.948181988489441
 20
12.54281848184819
 30
0.0
 11
4.879192320545906
 21
9.611808149791723
 31
0.0
  0
LWPOLYLINE
  5
187
330
1F
100
AcDbEntity
  8
0
  6
CONTINUOUS
 62
     7
100
AcDbPolyline
 90
        9
 70
   128
 43
0.0
 10
4.845349985384174
 20
10.10471426025208
 10
4.800904444636565
 20
10.10809218441271
 10
4.75664636446068
 20
10.1136900536028
 10
4.712644956440108
 20
10.12097986074394
 10
4.65964605050013
 20
10.13145615776839
 10
4.606919484263448
 20
10.14324738501472
 10
4.55749462825348
 20
10.15511437861899
 10
4.544806704572504
 20
10.15824460089318
 10
4.544290131169819
 20
10.15837257158013
  0
LINE
  5
188
330
1F
100
AcDbEntity
  8
0
  6
CONTINUOUS
 62
     7
100
AcDbLine
 10
4.87698958482068
 20
10.1040010807891
 30
0.0
 11
4.845349985384166
 21
10.10471426025207
 31
0.0
  0
LINE
  5
189
330
1F
100
AcDbEntity
  8
0
  6
CONTINUOUS
 62
     7
100
AcDbLine
 10
4.876989584820678
 20
10.10400108078911
 30
0.0
 11
5.051787173169433
 21
10.10445251543248
 31
0.0
  0
ARC
  5
18D
330
1F
100
AcDbEntity
  8
0
  6
CONTINUOUS
 62
     7
100
AcDbCircle
 10
8.787373352750972
 20
16.32160714700118
 30
0.0
 40
2.054140972089579
100
AcDbArc
 50
89.97522469442914
 51
103.8783849880894
  0
ARC
  5
190
330
1F
100
AcDbEntity
  8
0
  6
CONTINUOUS
 62
     7
100
AcDbCircle
 10
8.78920934061114
 20
16.32198549173958
 30
0.0
 40
2.053761829404842
100
AcDbArc
 50
76.12071213105018
 51
90.02644045092843
  0
LWPOLYLINE
  5
193
330
1F
100
AcDbEntity
  8
0
  6
CONTINUOUS
 62
     7
100
AcDbPolyline
 90
       19
 70
   128
 43
0.0
 10
3.008391680290466
 20
13.03633755763319
 10
3.008391588064866
 20
13.03633716843518
 10
2.991735584096998
 20
12.95921422161073
 10
2.978166104992946
 20
12.88135849096376
 10
2.967688322779517
 20
12.80263729890037
 10
2.960359308530776
 20
12.72343122336732
 10
2.956254271289237
 20
12.64643929983003
 10
2.955064888306464
 20
12.56907103766748
 10
2.956768867406954
 20
12.49171179188705
 10
2.961348472096486
 20
12.41419766452931
 10
2.965406492517907
 20
12.3682979669387
 10
2.970449521785376
 20
12.3224961460418
 10
2.976478082191864
 20
12.27672882648353
 10
2.983470831070807
 20
12.23109907834569
 10
2.991459188672011
 20
12.18538318917755
 10
3.000392152947137
 20
12.13984272824843
 10
3.010269597648111
 20
12.09441830893964
 10
3.021055454275452
 20
12.04920129950697
 10
3.021055550922397
 20
12.04920091138233
  0
LWPOLYLINE
  5
195
330
1F
100
AcDbEntity
  8
0
  6
CONTINUOUS
 62
     7
100
AcDbPolyline
 90
       21
 70
   128
 43
0.0
 10
14.55546761941223
 20
12.04920091138233
 10
14.55546771605917
 20
12.04920129950697
 10
14.57421014986386
 20
12.13065106249607
 10
14.58998009059747
 20
12.21284262591079
 10
14.60269325111677
 20
12.29591969423289
 10
14.60785626974537
 20
12.33768871010905
 10
14.61220394555013
 20
12.37955058174663
 10
14.6182760702869
 20
12.46088578195101
 10
14.62120035460368
 20
12.54270771069505
 10
14.62090065653625
 20
12.6245807279687
 10
14.61951939888471
 20
12.66565725858578
 10
14.61730695179379
 20
12.70669724904129
 10
14.61422149283507
 20
12.74810806201247
 10
14.61027711845954
 20
12.78944567565327
 10
14.60546066472919
 20
12.83076365686567
 10
14.59977627731299
 20
12.87197091820898
 10
14.59318522511341
 20
12.91326879508154
 10
14.58571730696863
 20
12.95441683027532
 10
14.57735948286816
 20
12.99547055200578
 10
14.56813158226976
 20
13.03633716843517
 10
14.56813149004416
 20
13.03633755763318
  0
ARC
  5
199
330
1F
100
AcDbEntity
  8
0
  6
CONTINUOUS
 62
     7
100
AcDbCircle
 10
11.24740302411981
 20
11.61078823853052
 30
0.0
 40
0.9835811343780081
100
AcDbArc
 50
269.7664630014562
 51
314.773036528671
  0
ARC
  5
19D
330
1F
100
AcDbEntity
  8
0
  6
CONTINUOUS
 62
     7
100
AcDbCircle
 10
6.328980731077403
 20
11.61058753511904
 30
0.0
 40
0.9833810108854654
100
AcDbArc
 50
225.2268377444374
 51
270.241707488007
  0
ARC
  5
19E
330
1F
100
AcDbEntity
  8
0
  6
CONTINUOUS
 62
     7
100
AcDbCircle
 10
5.303456389257835
 20
10.03607221850365
 30
0.0
 40
0.6000000000000015
100
AcDbArc
 50
250.1421584360152
 51
270.0000000000008
  0
LINE
  5
1A0
330
1F
100
AcDbEntity
  8
0
  6
CONTINUOUS
 62
     7
100
AcDbLine
 10
5.621234758362247
 20
10.10517640424588
 30
0.0
 11
11.95528841197238
 21
10.10517640424587
 31
0.0
  0
ARC
  5
1A2
330
1F
100
AcDbEntity
  8
0
  6
CONTINUOUS
 62
     7
100
AcDbCircle
 10
12.27306678107679
 20
10.03607221850365
 30
0.0
 40
0.6000000000000015
100
AcDbArc
 50
270.0000000000008
 51
289.8578415639869
  0
LINE
  5
1A3
330
1F
100
AcDbEntity
  8
0
  6
CONTINUOUS
 62
     7
100
AcDbLine
 10
5.303456389257835
 20
9.43607221850365
 30
0.0
 11
12.27306678107679
 21
9.43607221850365
 31
0.0
  0
ARC
  5
1A4
330
1F
100
AcDbEntity
  8
0
  6
CONTINUOUS
 62
     7
100
AcDbCircle
 10
11.95495110246404
 20
-214.3688517832826
 30
0.0
 40
224.4740281877819
100
AcDbArc
 50
89.85456533650188
 51
89.99991390357552
  0
ARC
  5
1A5
330
1F
100
AcDbEntity
  8
0
  6
CONTINUOUS
 62
     7
100
AcDbCircle
 10
12.27306678108003
 20
10.03607221849537
 30
0.0
 40
0.5999999999911257
100
AcDbArc
 50
289.8578415639637
 51
295.1421584360695
  0
ARC
  5
1A6
330
1F
100
AcDbEntity
  8
0
  6
CONTINUOUS
 62
     7
100
AcDbCircle
 10
5.616854964615096
 20
-211.2602348866554
 30
0.0
 40
221.3654113342292
100
AcDbArc
 50
89.99886638253306
 51
90.14625606843434
  0
ARC
  5
1A7
330
1F
100
AcDbEntity
  8
0
  6
CONTINUOUS
 62
     7
100
AcDbCircle
 10
5.303456389257667
 20
10.03607221850334
 30
0.0
 40
0.5999999999996574
100
AcDbArc
 50
244.8578415639889
 51
250.1421584360207
  0
LWPOLYLINE
  5
1A8
330
1F
100
AcDbEntity
  8
0
  6
CONTINUOUS
 62
     7
100
AcDbPolyline
 90
       13
 70
   128
 43
0.0
 10
11.24339396879557
 20
10.62721527459763
 10
10.62901691541696
 20
10.62925829957833
 10
10.01462977371689
 20
10.6312089537816
 10
9.70741619109118
 20
10.63213409823764
 10
9.400188787747897
 20
10.63294856468579
 10
9.092949170336153
 20
10.63352730401351
 10
8.78569894550505
 20
10.63374526710829
 10
8.479110070769344
 20
10.63352120512418
 10
8.17253194731094
 20
10.63293987664311
 10
7.865966022852173
 20
10.63212527021647
 10
7.559413745115377
 20
10.63120137439565
 10
6.946266461780405
 20
10.62925420120476
 10
6.33312920153893
 20
10.62721527459763
  0
LWPOLYLINE
  5
1A9
330
1F
100
AcDbEntity
  8
0
  6
CONTINUOUS
 62
     7
100
AcDbPolyline
 90
       92
 70
   128
 43
0.0
 10
8.788261585167315
 20
10.13680786558252
 10
8.800220050197399
 20
10.13687863053878
 10
8.812121527695758
 20
10.1370905881803
 10
8.823909301702212
 20
10.13744272843241
 10
8.835527198105495
 20
10.13793337318644
 10
8.846919852338485
 20
10.13856018429669
 10
8.858032973215577
 20
10.13932017472279
 10
8.868813601654903
 20
10.14020972276423
 10
8.879210363052477
 20
10.14122458931953
 10
8.889173712105582
 20
10.14235993808737
 10
8.898656168918698
 20
10.14361035861383
 10
8.907612545266816
 20
10.14496989207567
 10
8.916000159937935
 20
10.14643205967682
 10
8.923779042128442
 20
10.14798989352279
 10
8.930912121922217
 20
10.14963596982587
 10
8.937365406945655
 20
10.15136244428286
 10
8.943108144356815
 20
10.15316108945673
 10
8.948112967396697
 20
10.15502333398413
 10
8.952356025804336
 20
10.15694030342184
 10
8.955817099474142
 20
10.15890286253749
 10
8.958479694813911
 20
10.16090165884316
 10
8.960331123344312
 20
10.1629271671642
 10
8.961362562165261
 20
10.16496973503105
 10
8.961569096001063
 20
10.16701962867765
 10
8.960949740623934
 20
10.16906707942725
 10
8.959507447544298
 20
10.17110233024462
 10
8.957249089945499
 20
10.17311568223278
 10
8.954185429929943
 20
10.17509754085263
 10
8.950331067232788
 20
10.1770384616453
 10
8.945704369647552
 20
10.17892919523933
 10
8.940327385495219
 20
10.18076073142812
 10
8.934225738553937
 20
10.18252434210763
 10
8.927428505950055
 20
10.18421162286985
 10
8.919968079592376
 20
10.18581453305355
 10
8.911880011809952
 20
10.18732543406175
 10
8.903202845929053
 20
10.18873712576309
 10
8.89397793259666
 20
10.19004288080372
 10
8.884249232725807
 20
10.19123647666624
 10
8.874063108001802
 20
10.19231222532281
 10
8.863468099947692
 20
10.19326500034118
 10
8.852514698601792
 20
10.1940902613145
 10
8.841255101909672
 20
10.19478407549841
 10
8.829742966977157
 20
10.19534313655236
 10
8.818033154369803
 20
10.19576478029584
 10
8.806181466677298
 20
10.19604699740439
 10
8.794244382588731
 20
10.19618844298497
 10
8.782278787745898
 20
10.19618844298497
 10
8.770341703657329
 20
10.19604699740439
 10
8.758490015964827
 20
10.19576478029584
 10
8.74678020335747
 20
10.19534313655236
 10
8.735268068424957
 20
10.19478407549841
 10
8.724008471732835
 20
10.1940902613145
 10
8.713055070386937
 20
10.19326500034118
 10
8.702460062332827
 20
10.19231222532281
 10
8.692273937608822
 20
10.19123647666624
 10
8.682545237737969
 20
10.19004288080372
 10
8.673320324405576
 20
10.18873712576309
 10
8.664643158524677
 20
10.18732543406175
 10
8.656555090742253
 20
10.18581453305355
 10
8.649094664384575
 20
10.18421162286985
 10
8.642297431780693
 20
10.18252434210763
 10
8.636195784839411
 20
10.18076073142812
 10
8.630818800687077
 20
10.17892919523933
 10
8.626192103101843
 20
10.1770384616453
 10
8.622337740404688
 20
10.17509754085263
 10
8.619274080389132
 20
10.17311568223278
 10
8.617015722790332
 20
10.17110233024462
 10
8.615573429710696
 20
10.16906707942725
 10
8.614954074333567
 20
10.16701962867765
 10
8.61516060816937
 20
10.16496973503105
 10
8.61619204699032
 20
10.1629271671642
 10
8.618043475520721
 20
10.16090165884316
 10
8.620706070860491
 20
10.15890286253749
 10
8.624167144530296
 20
10.15694030342184
 10
8.628410202937935
 20
10.15502333398413
 10
8.63341502597782
 20
10.15316108945673
 10
8.639157763388977
 20
10.15136244428286
 10
8.645611048412416
 20
10.14963596982587
 10
8.652744128206192
 20
10.14798989352279
 10
8.660523010396699
 20
10.14643205967682
 10
8.668910625067816
 20
10.14496989207567
 10
8.677867001415936
 20
10.14361035861383
 10
8.68734945822905
 20
10.14235993808737
 10
8.697312807282155
 20
10.14122458931953
 10
8.70770956867973
 20
10.14020972276423
 10
8.718490197119056
 20
10.13932017472279
 10
8.729603317996147
 20
10.13856018429669
 10
8.740995972229139
 20
10.13793337318644
 10
8.752613868632423
 20
10.13744272843241
 10
8.764401642638876
 20
10.1370905881803
 10
8.776303120137235
 20
10.13687863053878
 10
8.788261585167315
 20
10.13680786558252
  0
LWPOLYLINE
  5
1AB
330
1F
100
AcDbEntity
  8
0
  6
CONTINUOUS
 62
     7
100
AcDbPolyline
 90
       87
 70
   128
 43
0.0
 10
8.788261585167315
 20
16.50336578211255
 10
8.733593352638848
 20
16.50257148888963
 10
8.678959543707726
 20
16.50019374340104
 10
8.62442853030109
 20
16.496240246917
 10
8.557930494831023
 20
16.48925551144095
 10
8.491660344191668
 20
16.47990532520593
 10
8.425740630164883
 20
16.46821676277061
 10
8.360293904532536
 20
16.45421689869368
 10
8.295442719076481
 20
16.43793280753381
 10
8.240779831784838
 20
16.42227059386623
 10
8.186594004358017
 20
16.40498634401269
 10
8.132929365702418
 20
16.386178506661
 10
8.056480648618654
 20
16.35654929642683
 10
7.981213500889938
 20
16.32403640165197
 10
7.921060988586694
 20
16.29554232885125
 10
7.861779608060889
 20
16.26517000567678
 10
7.803460206403316
 20
16.2329573349078
 10
7.746193630704771
 20
16.19894221932361
 10
7.690070728056053
 20
16.16316256170345
 10
7.643452773639343
 20
16.13148289895327
 10
7.597697321296046
 20
16.0985526003082
 10
7.552860200297854
 20
16.06439994794179
 10
7.498316632189181
 20
16.01976293378212
 10
7.44544087500775
 20
15.97311388774143
 10
7.393896651003985
 20
15.9249218776706
 10
7.343347682428314
 20
15.87565597142052
 10
7.293457691531165
 20
15.82578523684208
 10
7.043795685764229
 20
15.57473640504289
 10
6.543841022861999
 20
15.07342501934987
 10
6.005115303173693
 20
14.53459039735515
 10
5.735450753007478
 20
14.26546520326392
 10
5.465448933472616
 20
13.9966762079076
 10
5.425068007976817
 20
13.95614174619366
 10
5.385366818992507
 20
13.91494007143597
 10
5.346777201044758
 20
13.87271562721338
 10
5.309281168789808
 20
13.82909615815628
 10
5.273005310749782
 20
13.78444237422791
 10
5.237988515134745
 20
13.73880846091884
 10
5.20361621271645
 20
13.69132538556006
 10
5.170585025990593
 20
13.64288574397527
 10
5.138933305681596
 20
13.59354741042879
 10
5.108463301750755
 20
13.54298175216362
 10
5.079415194681915
 20
13.49157276620597
 10
5.051821602306567
 20
13.43938172028846
 10
5.026467763801197
 20
13.38806031916795
 10
5.002506367631092
 20
13.33606275500881
 10
4.979968586503194
 20
13.28344405360086
 10
4.954432939130107
 20
13.21831070340347
 10
4.931180358903542
 20
13.15225433070119
 10
4.910296503121514
 20
13.08539184969948
 10
4.891867029082038
 20
13.01784017460383
 10
4.875977594083129
 20
12.9497162196197
 10
4.864455373936663
 20
12.89129658923438
 10
4.854740942755531
 20
12.83253485399317
 10
4.84683891083115
 20
12.77351627456942
 10
4.841193127624123
 20
12.71923752868958
 10
4.837071565439162
 20
12.66481099538246
 10
4.834466698667131
 20
12.61030138533034
 10
4.833333743615616
 20
12.54368256239956
 10
4.8344431894091
 20
12.47700713874566
 10
4.837787315940862
 20
12.41038745830881
 10
4.843358403104191
 20
12.34393586502922
 10
4.851148730792371
 20
12.27776470284706
 10
4.859503554348001
 20
12.22182727910698
 10
4.869448999507121
 20
12.16613912341153
 10
4.880972606036972
 20
12.11076785046169
 10
4.893587575885073
 20
12.05765109665558
 10
4.907659319103594
 20
12.00489102805973
 10
4.923172336432224
 20
11.9525475105563
 10
4.944055649015731
 20
11.88927350488604
 10
4.967073955702102
 20
11.82668526777764
 10
4.99217853624195
 20
11.76488361870188
 10
5.019320670385888
 20
11.70396937712951
 10
5.048451637884526
 20
11.64404336253132
 10
5.074696600181806
 20
11.59397330824104
 10
5.102301002684426
 20
11.54462782990276
 10
5.131234098149212
 20
11.49606189257043
 10
5.165327132728366
 20
11.44243371911273
 10
5.201059944597214
 20
11.38986606121972
 10
5.238386653852344
 20
11.33843693576214
 10
5.277630949314328
 20
11.28775589937981
 10
5.31844467690927
 20
11.23831001891565
 10
5.360766650852837
 20
11.19016970740025
 10
5.405411920090519
 20
11.14269546686512
 10
5.451261864562329
 20
11.09635678688381
 10
5.49755682741337
 20
11.05046006935419
 10
5.636383753845828
 20
10.91259642099637
  0
LWPOLYLINE
  5
1AC
330
1F
100
AcDbEntity
  8
0
  6
CONTINUOUS
 62
     7
100
AcDbPolyline
 90
       86
 70
   128
 43
0.0
 10
11.94013941626582
 20
10.9125964207748
 10
12.12900404807148
 20
11.10009453187835
 10
12.17592286517979
 20
11.14784390406707
 10
12.22151800892576
 20
11.19689960956258
 10
12.26558877793438
 20
11.24731570667198
 10
12.30793447083069
 20
11.29914625370238
 10
12.34915050527451
 20
11.35327282638858
 10
12.38857635782978
 20
11.4087627308277
 10
12.42615450866842
 20
11.46552093187543
 10
12.46182743796232
 20
11.52345239438743
 10
12.49631483137472
 20
11.58384971466707
 10
12.52877238111878
 20
11.64540740497008
 10
12.55911101594075
 20
11.70803413282611
 10
12.5872416645869
 20
11.77163856576484
 10
12.60762072804847
 20
11.82190509600225
 10
12.62662438213322
 20
11.87271851286185
 10
12.64423169170975
 20
11.92402195945408
 10
12.66380674724457
 20
11.98725423863531
 10
12.68127691967175
 20
12.05115753400459
 10
12.69661671907456
 20
12.11562459604277
 10
12.7098006555363
 20
12.18054817523068
 10
12.72080323914025
 20
12.24582102204914
 10
12.72842488959061
 20
12.30147151520857
 10
12.7344717526283
 20
12.3573264895003
 10
12.73893676074472
 20
12.41331896293661
 10
12.74174280008531
 20
12.46748825287489
 10
12.74307007078725
 20
12.52172416315167
 10
12.74291946585554
 20
12.57596613945015
 10
12.74071378810172
 20
12.64215114505297
 10
12.73626786347325
 20
12.70828145835754
 10
12.72958275475546
 20
12.77424161460462
 10
12.72065952473369
 20
12.83991614903492
 10
12.70949923619326
 20
12.90518959688919
 10
12.69826100721474
 20
12.96029650063616
 10
12.68541029937996
 20
13.01506216366629
 10
12.6709481277328
 20
13.06941164572393
 10
12.65560103471363
 20
13.12095572011332
 10
12.63878376567527
 20
13.17205082508143
 10
12.62053278182929
 20
13.22264031258716
 10
12.59014871228613
 20
13.298777155749
 10
12.55681332130551
 20
13.37373640618017
 10
12.52060310142905
 20
13.44734986025015
 10
12.48159454519841
 20
13.51944931432845
 10
12.45358447564445
 20
13.56741037806479
 10
12.4243117047597
 20
13.61462270236297
 10
12.39380005094774
 20
13.66103216775019
 10
12.35450060606986
 20
13.71709479713049
 10
12.31334595917212
 20
13.7718804229885
 10
12.27039928934761
 20
13.82529595795039
 10
12.2257237756894
 20
13.87724831464235
 10
12.17938259729056
 20
13.92764440569056
 10
12.11888130451787
 20
13.98990234856263
 10
12.05740237555767
 20
14.0512069839437
 10
11.99550223731803
 20
14.11210011006179
 10
11.93373731670707
 20
14.17312352514495
 10
11.68777764002109
 20
14.4183900922044
 10
11.45104628043958
 20
14.65485893722653
 10
10.95117845219214
 20
15.15505718848912
 10
10.45004190466127
 20
15.65781191143281
 10
10.36681037928359
 20
15.74188163569217
 10
10.28359340332084
 20
15.82596524637724
 10
10.19979384663283
 20
15.9094630115112
 10
10.14810181847932
 20
15.95864428831019
 10
10.09470531626002
 20
16.00606527640851
 10
10.0396992757308
 20
16.05164251291871
 10
9.983178632647542
 20
16.09529253495335
 10
9.92523832276611
 20
16.13693187962498
 10
9.879257942773657
 20
16.16788852239466
 10
9.832467728239393
 20
16.19762535913033
 10
9.784921055095663
 20
16.22611883271356
 10
9.725998836472406
 20
16.25914322827776
 10
9.666013834544221
 20
16.29030511424726
 10
9.605060061179452
 20
16.31956743169184
 10
9.543231528246435
 20
16.34689312168126
 10
9.480622247613515
 20
16.37224512528527
 10
9.426984842723481
 20
16.39218633885228
 10
9.372812032569937
 20
16.41065407024916
 10
9.318134523695189
 20
16.42752429572268
 10
9.254187328213335
 20
16.44498208717357
 10
9.189670172407048
 20
16.46019980300063
 10
9.123856450703483
 20
16.47329480437607
 10
9.057576962553207
 20
16.48404950515245
 10
8.990957569809907
 20
16.49244587063527
 10
8.924124134327277
 20
16.49846586613005
 10
8.856236909868293
 20
16.50213851788655
 10
8.788261585167315
 20
16.50336578211255
  0
LWPOLYLINE
  5
1AD
330
1F
100
AcDbEntity
  8
0
  6
CONTINUOUS
 62
     7
100
AcDbPolyline
 90
       19
 70
   128
 43
0.0
 10
8.788261585167315
 20
10.17650190439995
 10
8.800220050197399
 20
10.1764311394437
 10
8.812121527695758
 20
10.17621918180217
 10
8.823909301702212
 20
10.17586704155006
 10
8.835527198105493
 20
10.17537639679604
 10
8.846919852338485
 20
10.17474958568578
 10
8.858032973215577
 20
10.17398959525969
 10
8.868813601654903
 20
10.17310004721824
 10
8.879210363052477
 20
10.17208518066294
 10
8.889173712105582
 20
10.17094983189511
 10
8.898656168918698
 20
10.16969941136864
 10
8.907612545266816
 20
10.1683398779068
 10
8.916000159937935
 20
10.16687771030565
 10
8.923779042128442
 20
10.16531987645968
 10
8.930912121922217
 20
10.16367380015661
 10
8.937365406945655
 20
10.16194732569962
 10
8.943108144356813
 20
10.16014868052575
 10
8.948112967396697
 20
10.15828643599834
 10
8.951779762887248
 20
10.15665488499065
  0
LWPOLYLINE
  5
1AE
330
1F
100
AcDbEntity
  8
0
  6
CONTINUOUS
 62
     7
100
AcDbPolyline
 90
       19
 70
   128
 43
0.0
 10
8.624743407447382
 20
10.15665488499065
 10
8.628410202937935
 20
10.15828643599834
 10
8.63341502597782
 20
10.16014868052575
 10
8.639157763388977
 20
10.16194732569962
 10
8.645611048412416
 20
10.16367380015661
 10
8.652744128206192
 20
10.16531987645968
 10
8.660523010396699
 20
10.16687771030565
 10
8.668910625067816
 20
10.1683398779068
 10
8.677867001415936
 20
10.16969941136865
 10
8.68734945822905
 20
10.17094983189511
 10
8.697312807282155
 20
10.17208518066295
 10
8.70770956867973
 20
10.17310004721824
 10
8.718490197119056
 20
10.17398959525969
 10
8.729603317996147
 20
10.17474958568578
 10
8.740995972229139
 20
10.17537639679604
 10
8.752613868632423
 20
10.17586704155006
 10
8.764401642638876
 20
10.17621918180217
 10
8.776303120137235
 20
10.1764311394437
 10
8.788261585167315
 20
10.17650190439995
  0
CIRCLE
  5
1AF
330
1F
100
AcDbEntity
  8
0
  6
CONTINUOUS
 62
     7
100
AcDbCircle
 10
8.788261585167315
 20
11.30273888517032
 30
0.0
 40
0.4111434996699366
  0
CIRCLE
  5
1B1
330
1F
100
AcDbEntity
  8
0
  6
CONTINUOUS
 62
     7
100
AcDbCircle
 10
8.788261585167315
 20
11.30273888517032
 30
0.0
 40
0.1733333333333338
  0
LWPOLYLINE
  5
37D
330
1F
100
AcDbEntity
  8
0
  6
CONTINUOUS
 62
     7
100
AcDbPolyline
 90
       20
 70
   128
 43
0.0
 10
4.544290131169688
 20
10.1583725715801
 10
4.336388188918006
 20
10.37776323816359
 10
4.127679900246119
 20
10.59638713166538
 10
3.850180943266407
 20
10.88500395341176
 10
3.711070104218368
 20
11.02896619502825
 10
3.571724796873173
 20
11.17269724208577
 10
3.432162338584356
 20
11.31618097302069
 10
3.386289168811304
 20
11.36479538824312
 10
3.342151159558911
 20
11.41501280767179
 10
3.300105229218734
 20
11.46695287156918
 10
3.26166205064163
 20
11.51885785098689
 10
3.225400422417894
 20
11.57237920703059
 10
3.191432305468502
 20
11.62738252914786
 10
3.15986966071444
 20
11.68373340678625
 10
3.129914263489657
 20
11.74313078887629
 10
3.102535550885148
 20
11.80382612852235
 10
3.077770709398921
 20
11.865636760651
 10
3.055656925529001
 20
11.92838002018882
 10
3.037186221211435
 20
11.98845539802274
 10
3.021055550922396
 20
12.04920091138233
  0
ENDSEC
  0
SECTION
  2
OBJECTS
  0
DICTIONARY
  5
C
330
0
100
AcDbDictionary
  3
ACAD_GROUP
350
D
  3
ACAD_LAYOUT
350
1A
  3
ACAD_MLINESTYLE
350
17
  3
ACAD_PLOTSETTINGS
350
19
  3
ACAD_PLOTSTYLENAME
350
E
  3
ACDBHEADERROUNDTRIPXREC
350
3BF
  3
ACDBVARIABLEDICTIONARY
350
3B9
  0
DICTIONARY
  5
37F
330
1F
100
AcDbDictionary
280
     1
  3
ACAD_LAYOUTSELFREF
360
3E1
  0
DICTIONARY
  5
381
330
1B
100
AcDbDictionary
280
     1
  3
ACAD_LAYOUTSELFREF
360
3E0
  0
DICTIONARY
  5
D
102
{ACAD_REACTORS
330
C
102
}
330
C
100
AcDbDictionary
  0
DICTIONARY
  5
1A
102
{ACAD_REACTORS
330
C
102
}
330
C
100
AcDbDictionary
  0
DICTIONARY
  5
17
102
{ACAD_REACTORS
330
C
102
}
330
C
100
AcDbDictionary
  3
STANDARD
350
18
  0
DICTIONARY
  5
19
102
{ACAD_REACTORS
330
C
102
}
330
C
100
AcDbDictionary
  0
ACDBDICTIONARYWDFLT
  5
E
102
{ACAD_REACTORS
330
C
102
}
330
C
100
AcDbDictionary
281
     1
  3
Normal
350
F
100
AcDbDictionaryWithDefault
340
F
  0
DICTIONARY
  5
3BF
102
{ACAD_REACTORS
330
C
102
}
330
C
100
AcDbDictionary
  3
CEPSNTYPE
350
3C9
  3
DIMSTYLEDATA
350
3CD
  3
FINGERPRINTGUID
350
3CA
  3
HYPERLINKBASE
350
3C2
  3
INSUNITS
350
3C8
  3
LAYOUTDICT
350
3C4
  3
LWETCUNION
350
3C7
  3
PLOTSETDICT
350
3C5
  3
PLOTSTYLNAMDICT
350
3C6
  3
PSVPSCALE
350
3CC
  3
PUCSBASE
350
3D0
  3
PUCSORGBACK
350
3D6
  3
PUCSORGBOTTOM
350
3D2
  3
PUCSORGFRONT
350
3D5
  3
PUCSORGLEFT
350
3D3
  3
PUCSORGRIGHT
350
3D4
  3
PUCSORGTOP
350
3D1
  3
PUCSORTHOREF
350
3CE
  3
PUCSORTHOVIEW
350
3CF
  3
STYLESHEET
350
3C3
  3
TSTACKALIGN
350
3C0
  3
TSTACKSIZE
350
3C1
  3
UCSBASE
350
3D9
  3
UCSORGBACK
350
3DF
  3
UCSORGBOTTOM
350
3DB
  3
UCSORGFRONT
350
3DE
  3
UCSORGLEFT
350
3DC
  3
UCSORGRIGHT
350
3DD
  3
UCSORGTOP
350
3DA
  3
UCSORTHOREF
350
3D7
  3
UCSORTHOVIEW
350
3D8
  3
VERSIONGUID
350
3CB
  0
DICTIONARY
  5
3B9
102
{ACAD_REACTORS
330
C
102
}
330
C
100
AcDbDictionary
  3
DIMASSOC
350
3BA
  0
XRECORD
  5
3E1
102
{ACAD_REACTORS
330
37F
102
}
330
37F
100
AcDbXrecord
340
1F
  0
XRECORD
  5
3E0
102
{ACAD_REACTORS
330
381
102
}
330
381
100
AcDbXrecord
340
1B
  0
MLINESTYLE
  5
18
102
{ACAD_REACTORS
330
17
102
}
330
17
100
AcDbMlineStyle
  2
STANDARD
 70
     0
  3

 62
   256
 51
90.0
 52
90.0
 71
     2
 49
0.5
 62
   256
  6
BYLAYER
 49
-0.5
 62
   256
  6
BYLAYER
  0
ACDBPLACEHOLDER
  5
F
102
{ACAD_REACTORS
330
E
102
}
330
E
100
AcDbPlaceHolder
280
     0
  0
XRECORD
  5
3C9
102
{ACAD_REACTORS
330
3BF
102
}
330
3BF
100
AcDbXrecord
 90
        0
  0
XRECORD
  5
3CD
102
{ACAD_REACTORS
330
3BF
102
}
330
3BF
100
AcDbXrecord
1000
DSTYLE
1002
{
1070
   278
 70
    44
1002
}
  0
XRECORD
  5
3CA
102
{ACAD_REACTORS
330
3BF
102
}
330
3BF
100
AcDbXrecord
  1
{A046804B-7E4C-4343-B909-4B8EA04B307B}
  0
XRECORD
  5
3C2
102
{ACAD_REACTORS
330
3BF
102
}
330
3BF
100
AcDbXrecord
  1

  0
XRECORD
  5
3C8
102
{ACAD_REACTORS
330
3BF
102
}
330
3BF
100
AcDbXrecord
 90
        4
  0
XRECORD
  5
3C4
102
{ACAD_REACTORS
330
3BF
102
}
330
3BF
100
AcDbXrecord
340
1A
  0
XRECORD
  5
3C7
102
{ACAD_REACTORS
330
3BF
102
}
330
3BF
100
AcDbXrecord
 90
    10269
  0
XRECORD
  5
3C5
102
{ACAD_REACTORS
330
3BF
102
}
330
3BF
100
AcDbXrecord
340
19
  0
XRECORD
  5
3C6
102
{ACAD_REACTORS
330
3BF
102
}
330
3BF
100
AcDbXrecord
340
E
  0
XRECORD
  5
3CC
102
{ACAD_REACTORS
330
3BF
102
}
330
3BF
100
AcDbXrecord
 40
0.0
  0
XRECORD
  5
3D0
102
{ACAD_REACTORS
330
3BF
102
}
330
3BF
100
AcDbXrecord
340
0
  0
XRECORD
  5
3D6
102
{ACAD_REACTORS
330
3BF
102
}
330
3BF
100
AcDbXrecord
 10
0.0
 20
0.0
 30
0.0
  0
XRECORD
  5
3D2
102
{ACAD_REACTORS
330
3BF
102
}
330
3BF
100
AcDbXrecord
 10
0.0
 20
0.0
 30
0.0
  0
XRECORD
  5
3D5
102
{ACAD_REACTORS
330
3BF
102
}
330
3BF
100
AcDbXrecord
 10
0.0
 20
0.0
 30
0.0
  0
XRECORD
  5
3D3
102
{ACAD_REACTORS
330
3BF
102
}
330
3BF
100
AcDbXrecord
 10
0.0
 20
0.0
 30
0.0
  0
XRECORD
  5
3D4
102
{ACAD_REACTORS
330
3BF
102
}
330
3BF
100
AcDbXrecord
 10
0.0
 20
0.0
 30
0.0
  0
XRECORD
  5
3D1
102
{ACAD_REACTORS
330
3BF
102
}
330
3BF
100
AcDbXrecord
 10
0.0
 20
0.0
 30
0.0
  0
XRECORD
  5
3CE
102
{ACAD_REACTORS
330
3BF
102
}
330
3BF
100
AcDbXrecord
340
0
  0
XRECORD
  5
3CF
102
{ACAD_REACTORS
330
3BF
102
}
330
3BF
100
AcDbXrecord
 70
     0
  0
XRECORD
  5
3C3
102
{ACAD_REACTORS
330
3BF
102
}
330
3BF
100
AcDbXrecord
  1

  0
XRECORD
  5
3C0
102
{ACAD_REACTORS
330
3BF
102
}
330
3BF
100
AcDbXrecord
 90
        1
  0
XRECORD
  5
3C1
102
{ACAD_REACTORS
330
3BF
102
}
330
3BF
100
AcDbXrecord
 90
       70
  0
XRECORD
  5
3D9
102
{ACAD_REACTORS
330
3BF
102
}
330
3BF
100
AcDbXrecord
340
0
  0
XRECORD
  5
3DF
102
{ACAD_REACTORS
330
3BF
102
}
330
3BF
100
AcDbXrecord
 10
0.0
 20
0.0
 30
0.0
  0
XRECORD
  5
3DB
102
{ACAD_REACTORS
330
3BF
102
}
330
3BF
100
AcDbXrecord
 10
0.0
 20
0.0
 30
0.0
  0
XRECORD
  5
3DE
102
{ACAD_REACTORS
330
3BF
102
}
330
3BF
100
AcDbXrecord
 10
0.0
 20
0.0
 30
0.0
  0
XRECORD
  5
3DC
102
{ACAD_REACTORS
330
3BF
102
}
330
3BF
100
AcDbXrecord
 10
0.0
 20
0.0
 30
0.0
  0
XRECORD
  5
3DD
102
{ACAD_REACTORS
330
3BF
102
}
330
3BF
100
AcDbXrecord
 10
0.0
 20
0.0
 30
0.0
  0
XRECORD
  5
3DA
102
{ACAD_REACTORS
330
3BF
102
}
330
3BF
100
AcDbXrecord
 10
0.0
 20
0.0
 30
0.0
  0
XRECORD
  5
3D7
102
{ACAD_REACTORS
330
3BF
102
}
330
3BF
100
AcDbXrecord
340
0
  0
XRECORD
  5
3D8
102
{ACAD_REACTORS
330
3BF
102
}
330
3BF
100
AcDbXrecord
 70
     0
  0
XRECORD
  5
3CB
102
{ACAD_REACTORS
330
3BF
102
}
330
3BF
100
AcDbXrecord
  1
{1FF2CD2A-1819-4660-86BA-A57973BE3EAD}
  0
DICTIONARYVAR
  5
3BA
102
{ACAD_REACTORS
330
3B9
102
}
330
3B9
100
DictionaryVariables
280
     0
  1
1
  0
ENDSEC
  0
EOF
