  0
SECTION
  2
HEADER
  9
$ACADVER
  1
AC1014
  9
$ACADMAINTVER
 70
     9
  9
$DWGCODEPAGE
  3
ANSI_1250
  9
$INSBASE
 10
0.0
 20
0.0
 30
0.0
  9
$EXTMIN
 10
3.97580116020493
 20
8.314636289042695
 30
-0.0015258207003583
  9
$EXTMAX
 10
14.29937901850717
 20
18.63583378637655
 30
0.0000000349246037
  9
$LIMMIN
 10
0.0
 20
0.0
  9
$LIMMAX
 10
0.0
 20
0.0
  9
$ORTHOMODE
 70
     0
  9
$REGENMODE
 70
     1
  9
$FILLMODE
 70
     1
  9
$QTEXTMODE
 70
     0
  9
$MIRRTEXT
 70
     1
  9
$DRAGMODE
 70
     2
  9
$LTSCALE
 40
1.0
  9
$OSMODE
 70
  1007
  9
$ATTMODE
 70
     1
  9
$TEXTSIZE
 40
2.5
  9
$TRACEWID
 40
1.0
  9
$TEXTSTYLE
  7
STANDARD
  9
$CLAYER
  8
0
  9
$CELTYPE
  6
BYLAYER
  9
$CECOLOR
 62
   256
  9
$CELTSCALE
 40
1.0
  9
$DELOBJ
 70
     1
  9
$DISPSILH
 70
     0
  9
$DIMSCALE
 40
1.0
  9
$DIMASZ
 40
0.3
  9
$DIMEXO
 40
0.01
  9
$DIMDLI
 40
3.75
  9
$DIMRND
 40
0.0
  9
$DIMDLE
 40
0.0
  9
$DIMEXE
 40
0.1
  9
$DIMTP
 40
0.0
  9
$DIMTM
 40
0.0
  9
$DIMTXT
 40
0.2822222222222222
  9
$DIMCEN
 40
2.5
  9
$DIMTSZ
 40
0.0
  9
$DIMTOL
 70
     0
  9
$DIMLIM
 70
     0
  9
$DIMTIH
 70
     1
  9
$DIMTOH
 70
     1
  9
$DIMSE1
 70
     0
  9
$DIMSE2
 70
     0
  9
$DIMTAD
 70
     1
  9
$DIMZIN
 70
     0
  9
$DIMBLK
  1

  9
$DIMASO
 70
     1
  9
$DIMSHO
 70
     1
  9
$DIMPOST
  1

  9
$DIMAPOST
  1

  9
$DIMALT
 70
     0
  9
$DIMALTD
 70
     3
  9
$DIMALTF
 40
0.3937007874015748
  9
$DIMLFAC
 40
10.0
  9
$DIMTOFL
 70
     1
  9
$DIMTVP
 40
0.0
  9
$DIMTIX
 70
     0
  9
$DIMSOXD
 70
     0
  9
$DIMSAH
 70
     0
  9
$DIMBLK1
  1

  9
$DIMBLK2
  1

  9
$DIMSTYLE
  2
ISO-25
  9
$DIMCLRD
 70
     0
  9
$DIMCLRE
 70
     0
  9
$DIMCLRT
 70
     0
  9
$DIMTFAC
 40
1.0
  9
$DIMGAP
 40
0.1524
  9
$DIMJUST
 70
     0
  9
$DIMSD1
 70
     0
  9
$DIMSD2
 70
     0
  9
$DIMTOLJ
 70
     0
  9
$DIMTZIN
 70
     0
  9
$DIMALTZ
 70
     0
  9
$DIMALTTZ
 70
     0
  9
$DIMFIT
 70
     3
  9
$DIMUPT
 70
     0
  9
$DIMUNIT
 70
     2
  9
$DIMDEC
 70
     2
  9
$DIMTDEC
 70
     2
  9
$DIMALTU
 70
     2
  9
$DIMALTTD
 70
     3
  9
$DIMTXSTY
  7
STANDARD
  9
$DIMAUNIT
 70
     0
  9
$LUNITS
 70
     2
  9
$LUPREC
 70
     2
  9
$SKETCHINC
 40
1.0
  9
$FILLETRAD
 40
10.0
  9
$AUNITS
 70
     0
  9
$AUPREC
 70
     0
  9
$MENU
  1
.
  9
$ELEVATION
 40
0.0
  9
$PELEVATION
 40
0.0
  9
$THICKNESS
 40
0.0
  9
$LIMCHECK
 70
     0
  9
$BLIPMODE
 70
     0
  9
$CHAMFERA
 40
10.0
  9
$CHAMFERB
 40
10.0
  9
$CHAMFERC
 40
20.0
  9
$CHAMFERD
 40
0.0
  9
$SKPOLY
 70
     0
  9
$TDCREATE
 40
2454418.396550740
  9
$TDUPDATE
 40
2454420.431596493
  9
$TDINDWG
 40
0.0004566435
  9
$TDUSRTIMER
 40
0.0004566435
  9
$USRTIMER
 70
     1
  9
$ANGBASE
 50
0.0
  9
$ANGDIR
 70
     0
  9
$PDMODE
 70
     0
  9
$PDSIZE
 40
-1.0
  9
$PLINEWID
 40
0.0
  9
$COORDS
 70
     1
  9
$SPLFRAME
 70
     0
  9
$SPLINETYPE
 70
     6
  9
$SPLINESEGS
 70
     8
  9
$ATTDIA
 70
     0
  9
$ATTREQ
 70
     1
  9
$HANDLING
 70
 22529
  9
$HANDSEED
  5
6EA
  9
$SURFTAB1
 70
     6
  9
$SURFTAB2
 70
     6
  9
$SURFTYPE
 70
     6
  9
$SURFU
 70
     6
  9
$SURFV
 70
     6
  9
$UCSNAME
  2

  9
$UCSORG
 10
0.0
 20
0.0
 30
0.0
  9
$UCSXDIR
 10
1.0
 20
0.0
 30
0.0
  9
$UCSYDIR
 10
0.0
 20
1.0
 30
0.0
  9
$PUCSNAME
  2

  9
$PUCSORG
 10
0.0
 20
0.0
 30
0.0
  9
$PUCSXDIR
 10
1.0
 20
0.0
 30
0.0
  9
$PUCSYDIR
 10
0.0
 20
1.0
 30
0.0
  9
$USERI1
 70
     0
  9
$USERI2
 70
     0
  9
$USERI3
 70
     0
  9
$USERI4
 70
     0
  9
$USERI5
 70
     0
  9
$USERR1
 40
0.0
  9
$USERR2
 40
0.0
  9
$USERR3
 40
0.0
  9
$USERR4
 40
0.0
  9
$USERR5
 40
0.0
  9
$WORLDVIEW
 70
     1
  9
$SHADEDGE
 70
     3
  9
$SHADEDIF
 70
    70
  9
$TILEMODE
 70
     1
  9
$MAXACTVP
 70
    64
  9
$PINSBASE
 10
0.0
 20
0.0
 30
0.0
  9
$PLIMCHECK
 70
     0
  9
$PEXTMIN
 10
1.000000000000000E+20
 20
1.000000000000000E+20
 30
1.000000000000000E+20
  9
$PEXTMAX
 10
-1.000000000000000E+20
 20
-1.000000000000000E+20
 30
-1.000000000000000E+20
  9
$PLIMMIN
 10
0.0
 20
0.0
  9
$PLIMMAX
 10
420.0
 20
297.0
  9
$UNITMODE
 70
     0
  9
$VISRETAIN
 70
     1
  9
$PLINEGEN
 70
     0
  9
$PSLTSCALE
 70
     1
  9
$TREEDEPTH
 70
  3020
  9
$PICKSTYLE
 70
     1
  9
$CMLSTYLE
  2
STANDARD
  9
$CMLJUST
 70
     0
  9
$CMLSCALE
 40
20.0
  9
$PROXYGRAPHICS
 70
     1
  9
$MEASUREMENT
 70
     1
  0
ENDSEC
  0
SECTION
  2
CLASSES
  0
CLASS
  1
ACDBDICTIONARYWDFLT
  2
AcDbDictionaryWithDefault
  3
AutoCAD 2000
 90
        0
280
     0
281
     0
  0
CLASS
  1
ACDBPLACEHOLDER
  2
AcDbPlaceHolder
  3
AutoCAD 2000
 90
        0
280
     0
281
     0
  0
CLASS
  1
LAYOUT
  2
AcDbLayout
  3
AutoCAD 2000
 90
        0
280
     0
281
     0
  0
CLASS
  1
DICTIONARYVAR
  2
AcDbDictionaryVar
  3
AutoCAD 2000
 90
        0
280
     0
281
     0
  0
CLASS
  1
LONG_TRANSACTION
  2
AcDbLongTransaction
  3
AutoCAD 2000
 90
        0
280
     0
281
     0
  0
CLASS
  1
LWPOLYLINE
  2
AcDbPolyline
  3
AutoCAD 2000
 90
        0
280
     0
281
     1
  0
CLASS
  1
HATCH
  2
AcDbHatch
  3
AutoCAD 2000
 90
        0
280
     0
281
     1
  0
CLASS
  1
XRECORD
  2
AcDbXrecord
  3
AutoCAD 2000
 90
        0
280
     0
281
     0
  0
ENDSEC
  0
SECTION
  2
TABLES
  0
TABLE
  2
VPORT
  5
8
330
0
100
AcDbSymbolTable
 70
     3
  0
VPORT
  5
6C2
330
8
100
AcDbSymbolTableRecord
100
AcDbViewportTableRecord
  2
*ACTIVE
 70
     0
 10
0.0
 20
0.0
 11
1.0
 21
1.0
 12
9.137590089356052
 22
13.47523503770962
 13
0.0
 23
0.0
 14
10.0
 24
10.0
 15
10.0
 25
10.0
 16
0.0
 26
0.0
 36
1.0
 17
0.0
 27
0.0
 37
0.0
 40
10.42288417218444
 41
1.981907894736842
 42
50.0
 43
0.0
 44
0.0
 50
0.0
 51
0.0
 71
     0
 72
  2000
 73
     1
 74
     3
 75
     0
 76
     0
 77
     0
 78
     0
  0
ENDTAB
  0
TABLE
  2
LTYPE
  5
5
330
0
100
AcDbSymbolTable
 70
     6
  0
LTYPE
  5
14
330
5
100
AcDbSymbolTableRecord
100
AcDbLinetypeTableRecord
  2
BYBLOCK
 70
     0
  3

 72
    65
 73
     0
 40
0.0
  0
LTYPE
  5
15
330
5
100
AcDbSymbolTableRecord
100
AcDbLinetypeTableRecord
  2
BYLAYER
 70
     0
  3

 72
    65
 73
     0
 40
0.0
  0
LTYPE
  5
16
330
5
100
AcDbSymbolTableRecord
100
AcDbLinetypeTableRecord
  2
CONTINUOUS
 70
     0
  3
Solid line
 72
    65
 73
     0
 40
0.0
  0
ENDTAB
  0
TABLE
  2
LAYER
  5
2
330
0
100
AcDbSymbolTable
 70
    16
  0
LAYER
  5
10
330
2
100
AcDbSymbolTableRecord
100
AcDbLayerTableRecord
  2
0
 70
     0
 62
     7
  6
CONTINUOUS
  0
ENDTAB
  0
TABLE
  2
STYLE
  5
3
330
0
100
AcDbSymbolTable
 70
     4
  0
STYLE
  5
11
330
3
100
AcDbSymbolTableRecord
100
AcDbTextStyleTableRecord
  2
STANDARD
 70
     0
 40
0.0
 41
1.0
 50
0.0
 71
     0
 42
2.5
  3
ARIAL.TTF
  4

1001
ACAD
1000
Arial
1071
       34
  0
ENDTAB
  0
TABLE
  2
VIEW
  5
6
330
0
100
AcDbSymbolTable
 70
     0
  0
ENDTAB
  0
TABLE
  2
UCS
  5
7
330
0
100
AcDbSymbolTable
 70
     0
  0
ENDTAB
  0
TABLE
  2
APPID
  5
9
330
0
100
AcDbSymbolTable
 70
     1
  0
APPID
  5
12
330
9
100
AcDbSymbolTableRecord
100
AcDbRegAppTableRecord
  2
ACAD
 70
     0
  0
ENDTAB
  0
TABLE
  2
DIMSTYLE
  5
A
330
0
100
AcDbSymbolTable
 70
     5
  0
DIMSTYLE
105
27
330
A
100
AcDbSymbolTableRecord
100
AcDbDimStyleTableRecord
  2
ISO-25
 70
     0
  3

  4

  5

  6

  7

 40
1.0
 41
2.5
 42
0.625
 43
3.75
 44
1.25
 45
0.0
 46
0.0
 47
0.0
 48
0.0
140
2.5
141
2.5
142
0.0
143
0.03937007874016
144
1.0
145
0.0
146
1.0
147
0.625
 71
     0
 72
     0
 73
     0
 74
     0
 75
     0
 76
     0
 77
     1
 78
     8
170
     0
171
     3
172
     1
173
     0
174
     0
175
     0
176
     0
177
     0
178
     0
270
     2
271
     2
272
     2
273
     2
274
     3
340
11
275
     0
280
     0
281
     0
282
     0
283
     0
284
     8
285
     0
286
     0
287
     3
288
     0
  0
ENDTAB
  0
TABLE
  2
BLOCK_RECORD
  5
1
330
0
100
AcDbSymbolTable
 70
    30
  0
BLOCK_RECORD
  5
1F
102
{ACAD_XDICTIONARY
360
6E6
102
}
330
1
100
AcDbSymbolTableRecord
100
AcDbBlockTableRecord
  2
*MODEL_SPACE
  0
BLOCK_RECORD
  5
1B
102
{ACAD_XDICTIONARY
360
6E4
102
}
330
1
100
AcDbSymbolTableRecord
100
AcDbBlockTableRecord
  2
*PAPER_SPACE
  0
ENDTAB
  0
ENDSEC
  0
SECTION
  2
BLOCKS
  0
BLOCK
  5
20
330
1F
100
AcDbEntity
  8
0
100
AcDbBlockBegin
  2
*MODEL_SPACE
 70
     0
 10
0.0
 20
0.0
 30
0.0
  3
*MODEL_SPACE
  1

  0
ENDBLK
  5
21
330
1F
100
AcDbEntity
  8
0
100
AcDbBlockEnd
  0
BLOCK
  5
1C
330
1B
100
AcDbEntity
 67
     1
  8
0
100
AcDbBlockBegin
  2
*PAPER_SPACE
 70
     0
 10
0.0
 20
0.0
 30
0.0
  3
*PAPER_SPACE
  1

  0
ENDBLK
  5
1D
330
1B
100
AcDbEntity
 67
     1
  8
0
100
AcDbBlockEnd
  0
ENDSEC
  0
SECTION
  2
ENTITIES
  0
LINE
  5
A8
330
1F
100
AcDbEntity
  8
0
100
AcDbLine
 10
3.977245946067519
 20
9.485233375458188
 30
0.0
 11
7.477245737451262
 21
9.485233375458188
 31
0.0
  0
ARC
  5
A9
330
1F
100
AcDbEntity
  8
0
100
AcDbCircle
 10
7.477245683807051
 20
15.13523325624889
 30
0.0
 40
5.649999999999952
100
AcDbArc
 50
270.0000000000007
 51
360.0000000000007
  0
LINE
  5
AA
330
1F
100
AcDbEntity
  8
0
100
AcDbLine
 10
13.12724556459779
 20
15.13523320260472
 30
0.0
 11
13.12724556459779
 21
18.63523299398846
 31
0.0
  0
LINE
  5
AB
330
1F
100
AcDbEntity
  8
0
100
AcDbLine
 10
7.477245737451262
 20
9.52652836742825
 30
0.0
 11
3.977245946067519
 21
9.52652836742825
 31
0.0
  0
LINE
  5
AC
330
1F
100
AcDbEntity
  8
0
100
AcDbLine
 10
3.977245946067519
 20
9.52652836742825
 30
0.0
 11
3.977245946067519
 21
9.626115807918973
 31
0.0
  0
LINE
  5
AD
330
1F
100
AcDbEntity
  8
0
100
AcDbLine
 10
3.977245946067519
 20
9.626115807918973
 30
0.0
 11
7.477245737451262
 21
9.626115807918973
 31
0.0
  0
ARC
  5
AE
330
1F
100
AcDbEntity
  8
0
100
AcDbCircle
 10
7.477245683807052
 20
15.13523325624889
 30
0.0
 40
5.608704783593558
100
AcDbArc
 50
270.0000000000007
 51
360.0000000000006
  0
ARC
  5
AF
330
1F
100
AcDbEntity
  8
0
100
AcDbCircle
 10
7.477245683807052
 20
15.13523325624889
 30
0.0
 40
5.50911747224797
100
AcDbArc
 50
270.0000000000007
 51
360.0000000000006
  0
LINE
  5
B0
330
1F
100
AcDbEntity
  8
0
100
AcDbLine
 10
12.72724564804429
 20
18.63523299398846
 30
0.0
 11
12.986363132137
 21
18.63523299398846
 31
0.0
  0
LINE
  5
B1
330
1F
100
AcDbEntity
  8
0
100
AcDbLine
 10
12.986363132137
 20
15.13523320260472
 30
0.0
 11
12.986363132137
 21
18.63523299398846
 31
0.0
  0
LINE
  5
B2
330
1F
100
AcDbEntity
  8
0
100
AcDbLine
 10
3.977245946067519
 20
9.885233292011685
 30
0.0
 11
3.977245946067519
 21
9.626115807918973
 31
0.0
  0
LINE
  5
B3
330
1F
100
AcDbEntity
  8
0
100
AcDbLine
 10
13.08595057262773
 20
18.63523299398846
 30
0.0
 11
13.08595057262773
 21
15.13523320260472
 31
0.0
  0
LINE
  5
B4
330
1F
100
AcDbEntity
  8
0
100
AcDbLine
 10
12.986363132137
 20
18.63523299398846
 30
0.0
 11
13.08595057262773
 21
18.63523299398846
 31
0.0
  0
LINE
  5
B5
330
1F
100
AcDbEntity
  8
0
100
AcDbLine
 10
3.977245946067519
 20
9.52652836742825
 30
0.0
 11
3.977245946067519
 21
9.485233375458188
 31
0.0
  0
LINE
  5
B6
330
1F
100
AcDbEntity
  8
0
100
AcDbLine
 10
13.08595057262773
 20
18.63523299398846
 30
0.0
 11
13.12724556459779
 21
18.63523299398846
 31
0.0
  0
ARC
  5
B7
330
1F
100
AcDbEntity
  8
0
100
AcDbCircle
 10
10.42288316414948
 20
16.08319390211602
 30
0.0
 40
1.482884588540042
100
AcDbArc
 50
359.6800439793905
 51
90.13970862228282
  0
ARC
  5
B8
330
1F
100
AcDbEntity
  8
0
100
AcDbCircle
 10
10.83736328229388
 20
16.48715294090436
 30
0.0
 40
1.496510176425747
100
AcDbArc
 50
73.44290975331588
 51
90.01940665448119
  0
ARC
  5
B9
330
1F
100
AcDbEntity
  8
0
100
AcDbCircle
 10
10.84113467198338
 20
16.49912204433619
 30
0.0
 40
1.48396263568165
100
AcDbArc
 50
16.54921573139543
 51
73.4507928080486
  0
ARC
  5
BA
330
1F
100
AcDbEntity
  8
0
100
AcDbCircle
 10
10.82914308715169
 20
16.49534760852755
 30
0.0
 40
1.496532593751071
100
AcDbArc
 50
359.9807155234352
 51
16.55696522285283
  0
ARC
  5
BB
330
1F
100
AcDbEntity
  8
0
100
AcDbCircle
 10
6.529309932832879
 20
12.18962074923997
 30
0.0
 40
1.482909422675955
100
AcDbArc
 50
179.8612586251838
 51
270.3189887731443
  0
ARC
  5
BC
330
1F
100
AcDbEntity
  8
0
100
AcDbCircle
 10
6.117131331528463
 20
11.78333585290451
 30
0.0
 40
1.496532593751299
100
AcDbArc
 50
253.4430347771492
 51
270.019284476565
  0
ARC
  5
BD
330
1F
100
AcDbEntity
  8
0
100
AcDbCircle
 10
6.113357107953851
 20
11.77134448030662
 30
0.0
 40
1.483962899576487
100
AcDbArc
 50
196.5492127127879
 51
253.4507787477696
  0
ARC
  5
BE
330
1F
100
AcDbEntity
  8
0
100
AcDbCircle
 10
6.125325999151649
 20
11.77511565776209
 30
0.0
 40
1.496510176425776
100
AcDbArc
 50
179.9805933455187
 51
196.5570902466845
  0
ARC
  5
BF
330
1F
100
AcDbEntity
  8
0
100
AcDbCircle
 10
6.28501684725127
 20
16.32746209280471
 30
0.0
 40
1.479329753934517
100
AcDbArc
 50
89.63127920658992
 51
180.3687207934108
  0
ARC
  5
C0
330
1F
100
AcDbEntity
  8
0
100
AcDbCircle
 10
6.12532418940727
 20
16.49535112957625
 30
0.0
 40
1.496508366795828
100
AcDbArc
 50
163.4428996569901
 51
180.0194195967235
  0
ARC
  5
C1
330
1F
100
AcDbEntity
  8
0
100
AcDbCircle
 10
6.113356818509161
 20
16.49912212154681
 30
0.0
 40
1.483962600065508
100
AcDbArc
 50
106.5492130300863
 51
163.4507869699135
  0
ARC
  5
C2
330
1F
100
AcDbEntity
  8
0
100
AcDbCircle
 10
6.11712781047973
 20
16.48715475064871
 30
0.0
 40
1.496508366795827
100
AcDbArc
 50
89.98058040327739
 51
106.5571003430099
  0
ARC
  5
C3
330
1F
100
AcDbEntity
  8
0
100
AcDbCircle
 10
7.477245683807089
 20
15.13523325624889
 30
0.0
 40
4.848429959344972
100
AcDbArc
 50
270.0000000000008
 51
0.0000000000002554
  0
LINE
  5
C4
330
1F
100
AcDbEntity
  8
0
100
AcDbLine
 10
7.477245737451262
 20
10.28680334392017
 30
0.0
 11
6.117635030883497
 21
10.28680334392017
 31
0.0
  0
LINE
  5
C5
330
1F
100
AcDbEntity
  8
0
100
AcDbLine
 10
3.977245946067519
 20
18.63523299398846
 30
0.0
 11
3.977245946067519
 21
9.635233232407042
 31
0.0
  0
LINE
  5
C6
330
1F
100
AcDbEntity
  8
0
100
AcDbLine
 10
6.117635030883497
 20
17.98366303148693
 30
0.0
 11
10.83685639931554
 21
17.98366303148693
 31
0.0
  0
LINE
  5
C7
330
1F
100
AcDbEntity
  8
0
100
AcDbLine
 10
4.628815908569045
 20
11.77562254074043
 30
0.0
 11
4.628815908569045
 21
16.49484390917248
 31
0.0
  0
ARC
  5
C8
330
1F
100
AcDbEntity
  8
0
100
AcDbCircle
 10
7.477245683807089
 20
15.13523325624889
 30
0.0
 40
5.499999999999998
100
AcDbArc
 50
270.0000000000008
 51
0.000000000000037
  0
LINE
  5
C9
330
1F
100
AcDbEntity
  8
0
100
AcDbLine
 10
3.977245946067519
 20
9.635233232407042
 30
0.0
 11
7.477245737451262
 21
9.635233232407042
 31
0.0
  0
LINE
  5
CA
330
1F
100
AcDbEntity
  8
0
100
AcDbLine
 10
12.3256755961358
 20
16.49484390917248
 30
0.0
 11
12.3256755961358
 21
15.13523320260472
 31
0.0
  0
LINE
  5
CB
330
1F
100
AcDbEntity
  8
0
100
AcDbLine
 10
12.97724570764894
 20
18.63523299398846
 30
0.0
 11
3.977245946067519
 21
18.63523299398846
 31
0.0
  0
LINE
  5
CC
330
1F
100
AcDbEntity
  8
0
100
AcDbLine
 10
12.97724570764894
 20
15.13523320260472
 30
0.0
 11
12.97724570764894
 21
18.63523299398846
 31
0.0
  0
LINE
  5
CD
330
1F
100
AcDbEntity
  8
0
100
AcDbLine
 10
11.90574463142747
 20
16.07491309347576
 30
0.0
 11
11.90386291279191
 21
15.13523320260472
 31
0.0
  0
LINE
  5
CE
330
1F
100
AcDbEntity
  8
0
100
AcDbLine
 10
7.477245737451262
 20
10.70861602726406
 30
0.0
 11
6.537565846580214
 21
10.7067343086285
 31
0.0
  0
LWPOLYLINE
  5
CF
330
1F
100
AcDbEntity
  8
0
100
AcDbPolyline
 90
        6
 70
   128
 43
0.0
 10
8.037866313594527
 20
17.56683225336499
 10
8.501085151570983
 20
17.56647253933377
 10
8.96430838538999
 20
17.56620998087353
 10
9.427540783423133
 20
17.5660511344952
 10
9.890774767032958
 20
17.56599957647747
 10
10.41926733835334
 20
17.56607408228344
  0
ARC
  5
D0
330
1F
100
AcDbEntity
  8
0
100
AcDbCircle
 10
0.6706756648581817
 20
11.05190959730392
 30
0.0
 40
9.834618206584634
100
AcDbArc
 50
41.48683556284854
 51
43.35085207939844
  0
LINE
  5
D1
330
1F
100
AcDbEntity
  8
0
100
AcDbLine
 10
6.294536848205275
 20
17.80676121416516
 30
0.0
 11
7.822053839105315
 21
17.8030210227055
 31
0.0
  0
LINE
  5
D2
330
1F
100
AcDbEntity
  8
0
100
AcDbLine
 10
4.805717725890821
 20
16.3179420918507
 30
0.0
 11
4.809457917350477
 21
14.79042510095066
 31
0.0
  0
ARC
  5
D3
330
1F
100
AcDbEntity
  8
0
100
AcDbCircle
 10
11.56056934275601
 20
21.94180327520219
 30
0.0
 40
9.834618206590548
100
AcDbArc
 50
226.6491479206031
 51
228.5131644371519
  0
LWPOLYLINE
  5
D4
330
1F
100
AcDbEntity
  8
0
100
AcDbPolyline
 90
        5
 70
   128
 43
0.0
 10
5.046404857772535
 20
12.19321160170264
 10
5.046478469508834
 20
12.78855879384107
 10
5.046372671264357
 20
13.38390568795628
 10
5.046091337341017
 20
13.97926243546433
 10
5.045646686690993
 20
14.57461262646145
  0
LWPOLYLINE
  5
D5
330
1F
100
AcDbEntity
  8
0
100
AcDbPolyline
 90
       76
 70
   128
 43
0.0
 10
10.83264592720861
 20
11.77983301284737
 10
10.84783982171411
 20
11.79493839445538
 10
10.86306821240777
 20
11.80990027788109
 10
10.87817329599256
 20
11.82455899718231
 10
10.89299719466561
 20
11.83875473740525
 10
10.90748596622342
 20
11.85242580774254
 10
10.92159937753076
 20
11.86552363040871
 10
10.93519832624787
 20
11.8779064953608
 10
10.94814378454084
 20
11.88943276706165
 10
10.96039969159955
 20
11.90005163255161
 10
10.97192775143975
 20
11.90971660020775
 10
10.9826188875615
 20
11.91832291486687
 10
10.99236417247647
 20
11.92576552334255
 10
11.00113000406617
 20
11.93199785950607
 10
11.0088976068675
 20
11.93700055184788
 10
11.01559597684735
 20
11.94072122278637
 10
11.02115410997266
 20
11.94310749473995
 10
11.02553922368878
 20
11.94412852230495
 10
11.02875750197763
 20
11.94379794004387
 10
11.03078175022
 20
11.9421257317347
 10
11.03158499731416
 20
11.93912150862641
 10
11.03115010692472
 20
11.9347853452248
 10
11.02949138416642
 20
11.92915062013096
 10
11.02662834956044
 20
11.92228803935475
 10
11.02258059813375
 20
11.91426853242344
 10
11.01733963622445
 20
11.90510767105049
 10
11.01093288196916
 20
11.89486379328197
 10
11.00342590047711
 20
11.8836580455584
 10
10.99488440586919
 20
11.87161164882607
 10
10.98530571593637
 20
11.85875000956482
 10
10.97473781241769
 20
11.84515150788254
 10
10.96328925027246
 20
11.83097074332661
 10
10.95106865896577
 20
11.81636224093861
 10
10.93810286058778
 20
11.80138128402657
 10
10.92444214655751
 20
11.78609157505459
 10
10.91022994055146
 20
11.77066045406288
 10
10.89560988976354
 20
11.75525518658585
 10
10.88064480258817
 20
11.73995415273136
 10
10.86537565721864
 20
11.72479296627468
 10
10.84996599389905
 20
11.70992957952446
 10
10.83457950188512
 20
11.69552216830677
 10
10.81928293837899
 20
11.68163406255669
 10
10.80412696732873
 20
11.66829543712563
 10
10.78927572502488
 20
11.65563757124371
 10
10.77489349676961
 20
11.64379181864685
 10
10.76103198959226
 20
11.63279379311031
 10
10.74775639607305
 20
11.62267575564808
 10
10.73521110846395
 20
11.61353098752922
 10
10.72354074253434
 20
11.60545291903443
 10
10.71279663278455
 20
11.59846874478287
 10
10.70302586688394
 20
11.59259098174996
 10
10.69433349801892
 20
11.58786895277924
 10
10.68682450487012
 20
11.58435175719685
 10
10.68055051996106
 20
11.58206137421555
 10
10.67551906837815
 20
11.58098543587154
 10
10.67177962197656
 20
11.58112617733902
 10
10.66938165261144
 20
11.58248605730957
 10
10.66835257841939
 20
11.58506932261414
 10
10.66867377294892
 20
11.5888545155806
 10
10.67033197416658
 20
11.59379819932407
 10
10.67331362201566
 20
11.59985678794808
 10
10.67761975957746
 20
11.60702551308102
 10
10.6832120163619
 20
11.61527196469731
 10
10.69001774920816
 20
11.62451105716652
 10
10.69796401693219
 20
11.63465740683502
 10
10.70703979267472
 20
11.64570751192993
 10
10.71718129946584
 20
11.65760802629418
 10
10.72826813592309
 20
11.67023780348724
 10
10.74017967714662
 20
11.68347562256283
 10
10.75288194848889
 20
11.69729779067463
 10
10.76630662812585
 20
11.71164738538689
 10
10.78030254377717
 20
11.72637614014572
 10
10.79471844865674
 20
11.74133586290306
 10
10.80718401505345
 20
11.75411837699837
 10
10.81985894276494
 20
11.76698292198605
 10
10.83264592720861
 20
11.77983301284737
  0
ARC
  5
D6
330
1F
100
AcDbEntity
  8
0
100
AcDbCircle
 10
7.466069601019017
 20
15.14640933903696
 30
0.0
 40
4.437807384738755
100
AcDbArc
 50
270.1442933571011
 51
359.8557066429004
  0
ARC
  5
D7
330
1F
100
AcDbEntity
  8
0
100
AcDbCircle
 10
12.02333786727734
 20
10.63701387817939
 30
0.0
 40
1.618633966864457
100
AcDbArc
 50
128.4291492591094
 51
136.1983385380366
  0
ARC
  5
D8
330
1F
100
AcDbEntity
  8
0
100
AcDbCircle
 10
12.04496506779028
 20
10.52583766856011
 30
0.0
 40
1.712439738465941
100
AcDbArc
 50
134.0139432103225
 51
141.3519901525971
  0
ARC
  5
D9
330
1F
100
AcDbEntity
  8
0
100
AcDbCircle
 10
4.627245683807082
 20
17.9852332562489
 30
0.0
 40
3.200000000000001
100
AcDbArc
 50
273.2642640545162
 51
356.7357359454854
  0
ARC
  5
DA
330
1F
100
AcDbEntity
  8
0
100
AcDbCircle
 10
4.636664752769193
 20
17.97581418728679
 30
0.0
 40
3.425702596495368
100
AcDbArc
 50
276.8566851395895
 51
353.143314860412
  0
CIRCLE
  5
DB
330
1F
100
AcDbEntity
  8
0
100
AcDbCircle
 10
9.877245683807082
 20
12.73523325624889
 30
0.0
 40
0.5500000000000007
  0
CIRCLE
  5
DC
330
1F
100
AcDbEntity
  8
0
100
AcDbCircle
 10
9.877245683807082
 20
12.73523325624889
 30
0.0
 40
0.254999999999999
  0
HATCH
  5
678
330
1F
100
AcDbEntity
  8
0
  6
CONTINUOUS
 62
     7
100
AcDbHatch
 10
0.0
 20
0.0
 30
0.0
210
0.0
220
0.0
230
1.0
  2
AR-CONC
 70
     0
 71
     0
 91
        1
 92
        0
 93
        8
 72
     1
 10
6.495277989582808
 20
2.800349890384053
 11
6.790425282711148
 21
2.797636920687737
 72
     3
 10
6.790419937054881
 20
2.78763345088789
 11
-0.0105570717419277
 21
0.00085239786866
 40
0.9441597538096614
 50
85.41446242152924
 51
175.9104879651082
 73
     0
 72
     1
 10
6.801007639253413
 20
2.787536129598191
 11
6.800906071784353
 21
2.59747020340111
 72
     1
 10
6.800906071784353
 20
2.59747020340111
 11
6.82208147618142
 21
2.597275560821713
 72
     1
 10
6.82208147618142
 20
2.597275560821713
 11
6.822183043650477
 21
2.787341487018795
 72
     3
 10
6.790419937054881
 20
2.78763345088789
 11
-0.0316712152257832
 21
0.0025571936059799
 40
0.9441597538096612
 50
184.0895120348942
 51
274.58553757848
 73
     1
 72
     1
 10
6.790435974023678
 20
2.81764386028743
 11
6.495103422724032
 21
2.820358532861653
 72
     3
 10
6.461803910777544
 20
2.04725064163117
 11
0.0120069141714451
 21
1.306246885594833
 40
0.0248793910713716
 50
1.939691577993654
 51
2.018388980791681
 73
     0
 97
        0
 75
     0
 76
     1
 52
0.0
 41
0.1
 77
     0
 78
    13
 53
50.0
 43
0.0
 44
0.0
 45
18.21846689960039
 46
-1.593908553890307
 79
     2
 49
1.905
 49
-20.955
 53
355.0
 43
0.0
 44
0.0
 45
-3.524282597566698
 46
19.105664288218
 79
     2
 49
1.524
 49
-16.764
 53
100.451
 43
1.5182
 44
-0.132825
 45
14.69425016659593
 46
17.51166878202918
 79
     2
 49
1.619
 49
-17.809
 53
46.1842
 43
0.0
 44
5.08
 45
27.10790408921298
 46
-4.204232793272715
 79
     2
 49
2.857499999999999
 49
-31.4325
 53
96.6356
 43
2.25899
 44
4.72965
 45
23.74042344662371
 46
24.74255558900492
 79
     2
 49
2.4285
 49
-26.7135
 53
351.184
 43
0.0
 44
5.08
 45
23.74046058139337
 46
24.74251178605979
 79
     2
 49
2.286
 49
-25.146
 53
21.0
 43
2.54
 44
3.81
 45
15.16148798353833
 46
-10.22655185167624
 79
     2
 49
1.905
 49
-20.955
 53
326.0
 43
2.54
 44
3.81
 45
6.180202834764725
 46
18.41879661223192
 79
     2
 49
1.524
 49
-16.764
 53
71.45140000000001
 43
3.80345
 44
2.95779
 45
21.34164907701244
 46
8.192285771605742
 79
     2
 49
1.619
 49
-17.809
 53
37.5
 43
0.0
 44
0.0
 45
0.3088603250591817
 46
8.455503887315311
 79
     6
 49
0.0
 49
-16.5608
 49
0.0
 49
-17.018
 49
0.0
 49
-16.8275
 53
7.499999999999999
 43
0.0
 44
0.0
 45
6.681966251030575
 46
10.01805748181195
 79
     6
 49
0.0
 49
-9.702800000000001
 49
0.0
 49
-16.1798
 49
0.0
 49
-6.4135
 53
-32.5
 43
-5.664200000000001
 44
0.0
 45
13.55905951668714
 46
-0.5728743992673459
 79
     6
 49
0.0
 49
-6.35
 49
0.0
 49
-19.812
 49
0.0
 49
-26.289
 53
-42.5
 43
-8.2042
 44
0.0
 45
14.8129181386018
 46
2.542649103333301
 79
     6
 49
0.0
 49
-8.255
 49
0.0
 49
-13.1572
 49
0.0
 49
-18.669
 98
        1
 10
0.0
 20
0.0
  0
HATCH
  5
679
330
1F
100
AcDbEntity
  8
0
  6
CONTINUOUS
 62
     7
100
AcDbHatch
 10
0.0
 20
0.0
 30
0.0
210
0.0
220
0.0
230
1.0
  2
AR-CONC
 70
     0
 71
     0
 91
        1
 92
        0
 93
        8
 72
     3
 10
6.388087253510668
 20
2.791331659896429
 11
-0.0316712152257832
 21
0.0025571936059799
 40
0.9441597538096612
 50
274.5855375784732
 51
364.0895120348933
 73
     1
 72
     1
 10
6.356324146915073
 20
2.791623623765524
 11
6.356222579446013
 21
2.601557697568443
 72
     1
 10
6.356222579446013
 20
2.601557697568443
 11
6.377397983843079
 21
2.601363054989046
 72
     1
 10
6.377397983843079
 20
2.601363054989046
 11
6.377499551312137
 21
2.791428981186127
 72
     3
 10
6.388087253510668
 20
2.791331659896429
 11
-0.0105570717419277
 21
0.00085239786866
 40
0.9441597538096614
 50
355.9104879651065
 51
445.4144624215147
 73
     0
 72
     1
 10
6.388092599166933
 20
2.801335129696275
 11
6.442179171341915
 21
2.800837970363615
 72
     3
 10
6.461803910777544
 20
2.04725064163117
 11
0.0120069141714451
 21
1.306246885594833
 40
0.0248793910713716
 50
357.9816110192088
 51
358.0603084220069
 73
     0
 72
     1
 10
6.442721513227272
 20
2.820840023074874
 11
6.388103290479469
 21
2.821342069295969
 97
        0
 75
     0
 76
     1
 52
0.0
 41
0.1
 77
     0
 78
    13
 53
50.0
 43
0.0
 44
0.0
 45
18.21846689960039
 46
-1.593908553890307
 79
     2
 49
1.905
 49
-20.955
 53
355.0
 43
0.0
 44
0.0
 45
-3.524282597566698
 46
19.105664288218
 79
     2
 49
1.524
 49
-16.764
 53
100.451
 43
1.5182
 44
-0.132825
 45
14.69425016659593
 46
17.51166878202918
 79
     2
 49
1.619
 49
-17.809
 53
46.1842
 43
0.0
 44
5.08
 45
27.10790408921298
 46
-4.204232793272715
 79
     2
 49
2.857499999999999
 49
-31.4325
 53
96.6356
 43
2.25899
 44
4.72965
 45
23.74042344662371
 46
24.74255558900492
 79
     2
 49
2.4285
 49
-26.7135
 53
351.184
 43
0.0
 44
5.08
 45
23.74046058139337
 46
24.74251178605979
 79
     2
 49
2.286
 49
-25.146
 53
21.0
 43
2.54
 44
3.81
 45
15.16148798353833
 46
-10.22655185167624
 79
     2
 49
1.905
 49
-20.955
 53
326.0
 43
2.54
 44
3.81
 45
6.180202834764725
 46
18.41879661223192
 79
     2
 49
1.524
 49
-16.764
 53
71.45140000000001
 43
3.80345
 44
2.95779
 45
21.34164907701244
 46
8.192285771605742
 79
     2
 49
1.619
 49
-17.809
 53
37.5
 43
0.0
 44
0.0
 45
0.3088603250591817
 46
8.455503887315311
 79
     6
 49
0.0
 49
-16.5608
 49
0.0
 49
-17.018
 49
0.0
 49
-16.8275
 53
7.499999999999999
 43
0.0
 44
0.0
 45
6.681966251030575
 46
10.01805748181195
 79
     6
 49
0.0
 49
-9.702800000000001
 49
0.0
 49
-16.1798
 49
0.0
 49
-6.4135
 53
-32.5
 43
-5.664200000000001
 44
0.0
 45
13.55905951668714
 46
-0.5728743992673459
 79
     6
 49
0.0
 49
-6.35
 49
0.0
 49
-19.812
 49
0.0
 49
-26.289
 53
-42.5
 43
-8.2042
 44
0.0
 45
14.8129181386018
 46
2.542649103333301
 79
     6
 49
0.0
 49
-8.255
 49
0.0
 49
-13.1572
 49
0.0
 49
-18.669
 98
        1
 10
0.0
 20
0.0
  0
HATCH
  5
67A
330
1F
100
AcDbEntity
  8
0
  6
CONTINUOUS
 62
     7
100
AcDbHatch
 10
0.0
 20
0.0
 30
0.0
210
0.0
220
0.0
230
1.0
  2
ANSI31
 70
     0
 71
     0
 91
        1
 92
        0
 93
       10
 72
     1
 10
6.466712438341088
 20
2.787964660394682
 11
6.466720754810034
 21
2.774766965377619
 72
     2
 10
6.469179294528312
 20
2.849627665147911
 40
0.0749010599901233
 50
268.1189951587697
 51
294.7885466388163
 73
     1
 72
     4
 94
        3
 73
     1
 74
     0
 95
        8
 96
        4
 40
0.0
 40
0.0
 40
0.0
 40
0.0
 40
0.0018872725473108
 40
0.0018872725473108
 40
0.0018872725473108
 40
0.0018872725473108
 10
6.500583107668552
 20
2.781627890825511
 42
1.0
 10
6.501558673991861
 20
2.787842695729241
 42
1.0
 10
6.502529561224862
 20
2.794058236203758
 42
1.0
 10
6.503496792159263
 20
2.800274343825262
 42
1.0
 72
     1
 10
6.503496792159263
 20
2.800274343825262
 11
6.475705439885709
 21
2.800529799654583
 72
     3
 10
6.461803910777552
 20
2.047250641631852
 11
-0.0073888702593544
 21
-0.80384423728923
 40
0.0248793910713682
 50
179.4693877583941
 51
180.5306122416065
 73
     1
 72
     1
 10
6.461751721039027
 20
2.800658061093069
 11
6.43396036876547
 21
2.80091351692239
 72
     4
 94
        3
 73
     1
 74
     0
 95
        8
 96
        4
 40
0.0
 40
0.0
 40
0.0
 40
0.0
 40
0.0018872725473108
 40
0.0018872725473108
 40
0.0018872725473108
 40
0.0018872725473108
 10
6.43396036876547
 20
2.80091351692239
 42
1.0
 10
6.434813170020659
 20
2.794680679714365
 42
1.0
 10
6.435669637382105
 20
2.788448342346383
 42
1.0
 10
6.436530796564706
 20
2.78221665441254
 42
1.0
 72
     2
 10
6.469179294528312
 20
2.849627665147911
 40
0.0749010599901233
 50
244.1581668187761
 51
259.8419759474408
 73
     1
 72
     1
 10
6.455969469977795
 20
2.77590067332681
 11
6.455966852931413
 21
2.780053755635584
 72
     1
 10
6.455966852931413
 20
2.780053755635584
 11
6.466712438341088
 21
2.787964660394682
 97
        0
 75
     0
 76
     1
 52
0.0
 41
0.1
 77
     0
 78
     1
 53
45.0
 43
0.0
 44
0.0
 45
-0.2245064030267288
 46
0.2245064030267288
 79
     0
 98
        1
 10
0.0
 20
0.0
  0
ENDSEC
  0
SECTION
  2
OBJECTS
  0
DICTIONARY
  5
C
330
0
100
AcDbDictionary
  3
ACAD_GROUP
350
D
  3
ACAD_LAYOUT
350
1A
  3
ACAD_MLINESTYLE
350
17
  3
ACAD_PLOTSETTINGS
350
19
  3
ACAD_PLOTSTYLENAME
350
E
  3
ACDBHEADERROUNDTRIPXREC
350
6C3
  3
ACDBVARIABLEDICTIONARY
350
6C0
  0
DICTIONARY
  5
6E6
330
1F
100
AcDbDictionary
280
     1
  3
ACAD_LAYOUTSELFREF
360
6E7
  0
DICTIONARY
  5
6E4
330
1B
100
AcDbDictionary
280
     1
  3
ACAD_LAYOUTSELFREF
360
6E5
  0
DICTIONARY
  5
D
102
{ACAD_REACTORS
330
C
102
}
330
C
100
AcDbDictionary
  0
DICTIONARY
  5
1A
102
{ACAD_REACTORS
330
C
102
}
330
C
100
AcDbDictionary
  0
DICTIONARY
  5
17
102
{ACAD_REACTORS
330
C
102
}
330
C
100
AcDbDictionary
  3
STANDARD
350
18
  0
DICTIONARY
  5
19
102
{ACAD_REACTORS
330
C
102
}
330
C
100
AcDbDictionary
  0
ACDBDICTIONARYWDFLT
  5
E
102
{ACAD_REACTORS
330
C
102
}
330
C
100
AcDbDictionary
281
     1
  3
Normal
350
F
100
AcDbDictionaryWithDefault
340
F
  0
DICTIONARY
  5
6C3
102
{ACAD_REACTORS
330
C
102
}
330
C
100
AcDbDictionary
  3
CEPSNTYPE
350
6CD
  3
DIMSTYLEDATA
350
6D1
  3
FINGERPRINTGUID
350
6CE
  3
HYPERLINKBASE
350
6C6
  3
INSUNITS
350
6CC
  3
LAYOUTDICT
350
6C8
  3
LWETCUNION
350
6CB
  3
PLOTSETDICT
350
6C9
  3
PLOTSTYLNAMDICT
350
6CA
  3
PSVPSCALE
350
6D0
  3
PUCSBASE
350
6D4
  3
PUCSORGBACK
350
6DA
  3
PUCSORGBOTTOM
350
6D6
  3
PUCSORGFRONT
350
6D9
  3
PUCSORGLEFT
350
6D7
  3
PUCSORGRIGHT
350
6D8
  3
PUCSORGTOP
350
6D5
  3
PUCSORTHOREF
350
6D2
  3
PUCSORTHOVIEW
350
6D3
  3
STYLESHEET
350
6C7
  3
TSTACKALIGN
350
6C4
  3
TSTACKSIZE
350
6C5
  3
UCSBASE
350
6DD
  3
UCSORGBACK
350
6E3
  3
UCSORGBOTTOM
350
6DF
  3
UCSORGFRONT
350
6E2
  3
UCSORGLEFT
350
6E0
  3
UCSORGRIGHT
350
6E1
  3
UCSORGTOP
350
6DE
  3
UCSORTHOREF
350
6DB
  3
UCSORTHOVIEW
350
6DC
  3
VERSIONGUID
350
6CF
  0
DICTIONARY
  5
6C0
102
{ACAD_REACTORS
330
C
102
}
330
C
100
AcDbDictionary
  3
DIMASSOC
350
6C1
  0
XRECORD
  5
6E7
102
{ACAD_REACTORS
330
6E6
102
}
330
6E6
100
AcDbXrecord
340
1F
  0
XRECORD
  5
6E5
102
{ACAD_REACTORS
330
6E4
102
}
330
6E4
100
AcDbXrecord
340
1B
  0
MLINESTYLE
  5
18
102
{ACAD_REACTORS
330
17
102
}
330
17
100
AcDbMlineStyle
  2
STANDARD
 70
     0
  3

 62
   256
 51
90.0
 52
90.0
 71
     2
 49
0.5
 62
   256
  6
BYLAYER
 49
-0.5
 62
   256
  6
BYLAYER
  0
ACDBPLACEHOLDER
  5
F
102
{ACAD_REACTORS
330
E
102
}
330
E
100
AcDbPlaceHolder
280
     0
  0
XRECORD
  5
6CD
102
{ACAD_REACTORS
330
6C3
102
}
330
6C3
100
AcDbXrecord
 90
        0
  0
XRECORD
  5
6D1
102
{ACAD_REACTORS
330
6C3
102
}
330
6C3
100
AcDbXrecord
1000
DSTYLE
1002
{
1070
   278
 70
    44
1002
}
  0
XRECORD
  5
6CE
102
{ACAD_REACTORS
330
6C3
102
}
330
6C3
100
AcDbXrecord
  1
{A73E2FF8-4EB9-4052-B673-9C6E359C06D9}
  0
XRECORD
  5
6C6
102
{ACAD_REACTORS
330
6C3
102
}
330
6C3
100
AcDbXrecord
  1

  0
XRECORD
  5
6CC
102
{ACAD_REACTORS
330
6C3
102
}
330
6C3
100
AcDbXrecord
 90
        4
  0
XRECORD
  5
6C8
102
{ACAD_REACTORS
330
6C3
102
}
330
6C3
100
AcDbXrecord
340
1A
  0
XRECORD
  5
6CB
102
{ACAD_REACTORS
330
6C3
102
}
330
6C3
100
AcDbXrecord
 90
    10781
  0
XRECORD
  5
6C9
102
{ACAD_REACTORS
330
6C3
102
}
330
6C3
100
AcDbXrecord
340
19
  0
XRECORD
  5
6CA
102
{ACAD_REACTORS
330
6C3
102
}
330
6C3
100
AcDbXrecord
340
E
  0
XRECORD
  5
6D0
102
{ACAD_REACTORS
330
6C3
102
}
330
6C3
100
AcDbXrecord
 40
0.0
  0
XRECORD
  5
6D4
102
{ACAD_REACTORS
330
6C3
102
}
330
6C3
100
AcDbXrecord
340
0
  0
XRECORD
  5
6DA
102
{ACAD_REACTORS
330
6C3
102
}
330
6C3
100
AcDbXrecord
 10
0.0
 20
0.0
 30
0.0
  0
XRECORD
  5
6D6
102
{ACAD_REACTORS
330
6C3
102
}
330
6C3
100
AcDbXrecord
 10
0.0
 20
0.0
 30
0.0
  0
XRECORD
  5
6D9
102
{ACAD_REACTORS
330
6C3
102
}
330
6C3
100
AcDbXrecord
 10
0.0
 20
0.0
 30
0.0
  0
XRECORD
  5
6D7
102
{ACAD_REACTORS
330
6C3
102
}
330
6C3
100
AcDbXrecord
 10
0.0
 20
0.0
 30
0.0
  0
XRECORD
  5
6D8
102
{ACAD_REACTORS
330
6C3
102
}
330
6C3
100
AcDbXrecord
 10
0.0
 20
0.0
 30
0.0
  0
XRECORD
  5
6D5
102
{ACAD_REACTORS
330
6C3
102
}
330
6C3
100
AcDbXrecord
 10
0.0
 20
0.0
 30
0.0
  0
XRECORD
  5
6D2
102
{ACAD_REACTORS
330
6C3
102
}
330
6C3
100
AcDbXrecord
340
0
  0
XRECORD
  5
6D3
102
{ACAD_REACTORS
330
6C3
102
}
330
6C3
100
AcDbXrecord
 70
     0
  0
XRECORD
  5
6C7
102
{ACAD_REACTORS
330
6C3
102
}
330
6C3
100
AcDbXrecord
  1

  0
XRECORD
  5
6C4
102
{ACAD_REACTORS
330
6C3
102
}
330
6C3
100
AcDbXrecord
 90
        1
  0
XRECORD
  5
6C5
102
{ACAD_REACTORS
330
6C3
102
}
330
6C3
100
AcDbXrecord
 90
       70
  0
XRECORD
  5
6DD
102
{ACAD_REACTORS
330
6C3
102
}
330
6C3
100
AcDbXrecord
340
0
  0
XRECORD
  5
6E3
102
{ACAD_REACTORS
330
6C3
102
}
330
6C3
100
AcDbXrecord
 10
0.0
 20
0.0
 30
0.0
  0
XRECORD
  5
6DF
102
{ACAD_REACTORS
330
6C3
102
}
330
6C3
100
AcDbXrecord
 10
0.0
 20
0.0
 30
0.0
  0
XRECORD
  5
6E2
102
{ACAD_REACTORS
330
6C3
102
}
330
6C3
100
AcDbXrecord
 10
0.0
 20
0.0
 30
0.0
  0
XRECORD
  5
6E0
102
{ACAD_REACTORS
330
6C3
102
}
330
6C3
100
AcDbXrecord
 10
0.0
 20
0.0
 30
0.0
  0
XRECORD
  5
6E1
102
{ACAD_REACTORS
330
6C3
102
}
330
6C3
100
AcDbXrecord
 10
0.0
 20
0.0
 30
0.0
  0
XRECORD
  5
6DE
102
{ACAD_REACTORS
330
6C3
102
}
330
6C3
100
AcDbXrecord
 10
0.0
 20
0.0
 30
0.0
  0
XRECORD
  5
6DB
102
{ACAD_REACTORS
330
6C3
102
}
330
6C3
100
AcDbXrecord
340
0
  0
XRECORD
  5
6DC
102
{ACAD_REACTORS
330
6C3
102
}
330
6C3
100
AcDbXrecord
 70
     0
  0
XRECORD
  5
6CF
102
{ACAD_REACTORS
330
6C3
102
}
330
6C3
100
AcDbXrecord
  1
{CBFCA14B-43E0-4EDC-8D48-B0E463A35F2E}
  0
DICTIONARYVAR
  5
6C1
102
{ACAD_REACTORS
330
6C0
102
}
330
6C0
100
DictionaryVariables
280
     0
  1
1
  0
ENDSEC
  0
EOF
