  0
SECTION
  2
HEADER
  9
$ACADVER
  1
AC1014
  9
$ACADMAINTVER
 70
     9
  9
$DWGCODEPAGE
  3
ANSI_1250
  9
$INSBASE
 10
0.0
 20
0.0
 30
0.0
  9
$EXTMIN
 10
3.962993064757334
 20
4.981435459093093
 30
0.0
  9
$EXTMAX
 10
17.13676360150062
 20
18.15520599583635
 30
0.0
  9
$LIMMIN
 10
0.0
 20
0.0
  9
$LIMMAX
 10
0.0
 20
0.0
  9
$ORTHOMODE
 70
     0
  9
$REGENMODE
 70
     1
  9
$FILLMODE
 70
     1
  9
$QTEXTMODE
 70
     0
  9
$MIRRTEXT
 70
     1
  9
$DRAGMODE
 70
     2
  9
$LTSCALE
 40
1.0
  9
$OSMODE
 70
  3007
  9
$ATTMODE
 70
     1
  9
$TEXTSIZE
 40
2.5
  9
$TRACEWID
 40
1.0
  9
$TEXTSTYLE
  7
STANDARD
  9
$CLAYER
  8
0
  9
$CELTYPE
  6
BYLAYER
  9
$CECOLOR
 62
   256
  9
$CELTSCALE
 40
1.0
  9
$DELOBJ
 70
     1
  9
$DISPSILH
 70
     0
  9
$DIMSCALE
 40
1.0
  9
$DIMASZ
 40
0.3
  9
$DIMEXO
 40
0.01
  9
$DIMDLI
 40
3.75
  9
$DIMRND
 40
0.0
  9
$DIMDLE
 40
0.0
  9
$DIMEXE
 40
0.1
  9
$DIMTP
 40
0.0
  9
$DIMTM
 40
0.0
  9
$DIMTXT
 40
0.2822222222222222
  9
$DIMCEN
 40
2.5
  9
$DIMTSZ
 40
0.0
  9
$DIMTOL
 70
     0
  9
$DIMLIM
 70
     0
  9
$DIMTIH
 70
     1
  9
$DIMTOH
 70
     1
  9
$DIMSE1
 70
     0
  9
$DIMSE2
 70
     0
  9
$DIMTAD
 70
     1
  9
$DIMZIN
 70
     0
  9
$DIMBLK
  1

  9
$DIMASO
 70
     1
  9
$DIMSHO
 70
     1
  9
$DIMPOST
  1

  9
$DIMAPOST
  1

  9
$DIMALT
 70
     0
  9
$DIMALTD
 70
     3
  9
$DIMALTF
 40
0.3937007874015748
  9
$DIMLFAC
 40
10.0
  9
$DIMTOFL
 70
     1
  9
$DIMTVP
 40
0.0
  9
$DIMTIX
 70
     0
  9
$DIMSOXD
 70
     0
  9
$DIMSAH
 70
     0
  9
$DIMBLK1
  1

  9
$DIMBLK2
  1

  9
$DIMSTYLE
  2
ISO-25
  9
$DIMCLRD
 70
     0
  9
$DIMCLRE
 70
     0
  9
$DIMCLRT
 70
     0
  9
$DIMTFAC
 40
1.0
  9
$DIMGAP
 40
0.1524
  9
$DIMJUST
 70
     0
  9
$DIMSD1
 70
     0
  9
$DIMSD2
 70
     0
  9
$DIMTOLJ
 70
     0
  9
$DIMTZIN
 70
     0
  9
$DIMALTZ
 70
     0
  9
$DIMALTTZ
 70
     0
  9
$DIMFIT
 70
     3
  9
$DIMUPT
 70
     0
  9
$DIMUNIT
 70
     2
  9
$DIMDEC
 70
     2
  9
$DIMTDEC
 70
     2
  9
$DIMALTU
 70
     2
  9
$DIMALTTD
 70
     3
  9
$DIMTXSTY
  7
STANDARD
  9
$DIMAUNIT
 70
     0
  9
$LUNITS
 70
     2
  9
$LUPREC
 70
     2
  9
$SKETCHINC
 40
1.0
  9
$FILLETRAD
 40
10.0
  9
$AUNITS
 70
     0
  9
$AUPREC
 70
     0
  9
$MENU
  1
.
  9
$ELEVATION
 40
0.0
  9
$PELEVATION
 40
0.0
  9
$THICKNESS
 40
0.0
  9
$LIMCHECK
 70
     0
  9
$BLIPMODE
 70
     0
  9
$CHAMFERA
 40
10.0
  9
$CHAMFERB
 40
10.0
  9
$CHAMFERC
 40
20.0
  9
$CHAMFERD
 40
0.0
  9
$SKPOLY
 70
     0
  9
$TDCREATE
 40
2453966.349541909
  9
$TDUPDATE
 40
2453966.356506076
  9
$TDINDWG
 40
0.0021895023
  9
$TDUSRTIMER
 40
0.0021895023
  9
$USRTIMER
 70
     1
  9
$ANGBASE
 50
0.0
  9
$ANGDIR
 70
     0
  9
$PDMODE
 70
     0
  9
$PDSIZE
 40
-1.0
  9
$PLINEWID
 40
0.0
  9
$COORDS
 70
     2
  9
$SPLFRAME
 70
     0
  9
$SPLINETYPE
 70
     6
  9
$SPLINESEGS
 70
     8
  9
$ATTDIA
 70
     0
  9
$ATTREQ
 70
     1
  9
$HANDLING
 70
 22529
  9
$HANDSEED
  5
1F9
  9
$SURFTAB1
 70
     6
  9
$SURFTAB2
 70
     6
  9
$SURFTYPE
 70
     6
  9
$SURFU
 70
     6
  9
$SURFV
 70
     6
  9
$UCSNAME
  2

  9
$UCSORG
 10
0.0
 20
0.0
 30
0.0
  9
$UCSXDIR
 10
1.0
 20
0.0
 30
0.0
  9
$UCSYDIR
 10
0.0
 20
1.0
 30
0.0
  9
$PUCSNAME
  2

  9
$PUCSORG
 10
0.0
 20
0.0
 30
0.0
  9
$PUCSXDIR
 10
1.0
 20
0.0
 30
0.0
  9
$PUCSYDIR
 10
0.0
 20
1.0
 30
0.0
  9
$USERI1
 70
     0
  9
$USERI2
 70
     0
  9
$USERI3
 70
     0
  9
$USERI4
 70
     0
  9
$USERI5
 70
     0
  9
$USERR1
 40
0.0
  9
$USERR2
 40
0.0
  9
$USERR3
 40
0.0
  9
$USERR4
 40
0.0
  9
$USERR5
 40
0.0
  9
$WORLDVIEW
 70
     1
  9
$SHADEDGE
 70
     3
  9
$SHADEDIF
 70
    70
  9
$TILEMODE
 70
     1
  9
$MAXACTVP
 70
    48
  9
$PINSBASE
 10
0.0
 20
0.0
 30
0.0
  9
$PLIMCHECK
 70
     0
  9
$PEXTMIN
 10
1.000000000000000E+20
 20
1.000000000000000E+20
 30
1.000000000000000E+20
  9
$PEXTMAX
 10
-1.000000000000000E+20
 20
-1.000000000000000E+20
 30
-1.000000000000000E+20
  9
$PLIMMIN
 10
0.0
 20
0.0
  9
$PLIMMAX
 10
420.0
 20
297.0
  9
$UNITMODE
 70
     0
  9
$VISRETAIN
 70
     1
  9
$PLINEGEN
 70
     0
  9
$PSLTSCALE
 70
     1
  9
$TREEDEPTH
 70
  3020
  9
$PICKSTYLE
 70
     1
  9
$CMLSTYLE
  2
STANDARD
  9
$CMLJUST
 70
     0
  9
$CMLSCALE
 40
20.0
  9
$PROXYGRAPHICS
 70
     1
  9
$MEASUREMENT
 70
     1
  0
ENDSEC
  0
SECTION
  2
CLASSES
  0
CLASS
  1
ACDBDICTIONARYWDFLT
  2
AcDbDictionaryWithDefault
  3
AutoCAD 2000
 90
        0
280
     0
281
     0
  0
CLASS
  1
ACDBPLACEHOLDER
  2
AcDbPlaceHolder
  3
AutoCAD 2000
 90
        0
280
     0
281
     0
  0
CLASS
  1
LAYOUT
  2
AcDbLayout
  3
AutoCAD 2000
 90
        0
280
     0
281
     0
  0
CLASS
  1
DICTIONARYVAR
  2
AcDbDictionaryVar
  3
AutoCAD 2000
 90
        0
280
     0
281
     0
  0
CLASS
  1
LONG_TRANSACTION
  2
AcDbLongTransaction
  3
AutoCAD 2000
 90
        0
280
     0
281
     0
  0
CLASS
  1
LWPOLYLINE
  2
AcDbPolyline
  3
AutoCAD 2000
 90
        0
280
     0
281
     1
  0
CLASS
  1
HATCH
  2
AcDbHatch
  3
AutoCAD 2000
 90
        0
280
     0
281
     1
  0
CLASS
  1
XRECORD
  2
AcDbXrecord
  3
AutoCAD 2000
 90
        0
280
     0
281
     0
  0
CLASS
  1
LONG_TRANSACTION
  2
AcDbLongTransaction
  3
AutoCAD 2000
 90
        0
280
     0
281
     0
  0
CLASS
  1
LWPOLYLINE
  2
AcDbPolyline
  3
AutoCAD 2000
 90
        0
280
     0
281
     1
  0
CLASS
  1
HATCH
  2
AcDbHatch
  3
AutoCAD 2000
 90
        0
280
     0
281
     1
  0
CLASS
  1
XRECORD
  2
AcDbXrecord
  3
AutoCAD 2000
 90
        0
280
     0
281
     0
  0
ENDSEC
  0
SECTION
  2
TABLES
  0
TABLE
  2
VPORT
  5
8
330
0
100
AcDbSymbolTable
 70
     2
  0
VPORT
  5
1D4
330
8
100
AcDbSymbolTableRecord
100
AcDbViewportTableRecord
  2
*ACTIVE
 70
     0
 10
0.0
 20
0.0
 11
1.0
 21
1.0
 12
10.55039755560039
 22
11.56864934213069
 13
0.0
 23
0.0
 14
10.0
 24
10.0
 15
10.0
 25
10.0
 16
0.0
 26
0.0
 36
1.0
 17
0.0
 27
0.0
 37
0.0
 40
13.30333016593383
 41
1.674961119751166
 42
50.0
 43
0.0
 44
0.0
 50
0.0
 51
0.0
 71
     0
 72
  2000
 73
     1
 74
     3
 75
     0
 76
     0
 77
     0
 78
     0
  0
ENDTAB
  0
TABLE
  2
LTYPE
  5
5
330
0
100
AcDbSymbolTable
 70
     1
  0
LTYPE
  5
14
330
5
100
AcDbSymbolTableRecord
100
AcDbLinetypeTableRecord
  2
BYBLOCK
 70
     0
  3

 72
    65
 73
     0
 40
0.0
  0
LTYPE
  5
15
330
5
100
AcDbSymbolTableRecord
100
AcDbLinetypeTableRecord
  2
BYLAYER
 70
     0
  3

 72
    65
 73
     0
 40
0.0
  0
LTYPE
  5
16
330
5
100
AcDbSymbolTableRecord
100
AcDbLinetypeTableRecord
  2
CONTINUOUS
 70
     0
  3
Solid line
 72
    65
 73
     0
 40
0.0
  0
ENDTAB
  0
TABLE
  2
LAYER
  5
2
330
0
100
AcDbSymbolTable
 70
     1
  0
LAYER
  5
10
330
2
100
AcDbSymbolTableRecord
100
AcDbLayerTableRecord
  2
0
 70
     0
 62
     7
  6
CONTINUOUS
  0
ENDTAB
  0
TABLE
  2
STYLE
  5
3
330
0
100
AcDbSymbolTable
 70
     1
  0
STYLE
  5
11
330
3
100
AcDbSymbolTableRecord
100
AcDbTextStyleTableRecord
  2
STANDARD
 70
     0
 40
0.0
 41
1.0
 50
0.0
 71
     0
 42
2.5
  3
ARIAL.TTF
  4

1001
ACAD
1000
Arial
1071
       34
  0
ENDTAB
  0
TABLE
  2
VIEW
  5
6
330
0
100
AcDbSymbolTable
 70
     0
  0
ENDTAB
  0
TABLE
  2
UCS
  5
7
330
0
100
AcDbSymbolTable
 70
     0
  0
ENDTAB
  0
TABLE
  2
APPID
  5
9
330
0
100
AcDbSymbolTable
 70
     1
  0
APPID
  5
12
330
9
100
AcDbSymbolTableRecord
100
AcDbRegAppTableRecord
  2
ACAD
 70
     0
  0
ENDTAB
  0
TABLE
  2
DIMSTYLE
  5
A
330
0
100
AcDbSymbolTable
 70
     1
  0
DIMSTYLE
105
27
330
A
100
AcDbSymbolTableRecord
100
AcDbDimStyleTableRecord
  2
ISO-25
 70
     0
  3

  4

  5

  6

  7

 40
1.0
 41
2.5
 42
0.625
 43
3.75
 44
1.25
 45
0.0
 46
0.0
 47
0.0
 48
0.0
140
2.5
141
2.5
142
0.0
143
0.03937007874016
144
1.0
145
0.0
146
1.0
147
0.625
 71
     0
 72
     0
 73
     0
 74
     0
 75
     0
 76
     0
 77
     1
 78
     8
170
     0
171
     3
172
     1
173
     0
174
     0
175
     0
176
     0
177
     0
178
     0
270
     2
271
     2
272
     2
273
     2
274
     3
340
11
275
     0
280
     0
281
     0
282
     0
283
     0
284
     8
285
     0
286
     0
287
     3
288
     0
  0
ENDTAB
  0
TABLE
  2
BLOCK_RECORD
  5
1
330
0
100
AcDbSymbolTable
 70
     1
  0
BLOCK_RECORD
  5
1F
102
{ACAD_XDICTIONARY
360
197
102
}
330
1
100
AcDbSymbolTableRecord
100
AcDbBlockTableRecord
  2
*MODEL_SPACE
  0
BLOCK_RECORD
  5
1B
102
{ACAD_XDICTIONARY
360
199
102
}
330
1
100
AcDbSymbolTableRecord
100
AcDbBlockTableRecord
  2
*PAPER_SPACE
  0
ENDTAB
  0
ENDSEC
  0
SECTION
  2
BLOCKS
  0
BLOCK
  5
20
330
1F
100
AcDbEntity
  8
0
100
AcDbBlockBegin
  2
*MODEL_SPACE
 70
     0
 10
0.0
 20
0.0
 30
0.0
  3
*MODEL_SPACE
  1

  0
ENDBLK
  5
21
330
1F
100
AcDbEntity
  8
0
100
AcDbBlockEnd
  0
BLOCK
  5
1C
330
1B
100
AcDbEntity
 67
     1
  8
0
100
AcDbBlockBegin
  2
*PAPER_SPACE
 70
     0
 10
0.0
 20
0.0
 30
0.0
  3
*PAPER_SPACE
  1

  0
ENDBLK
  5
1D
330
1B
100
AcDbEntity
 67
     1
  8
0
100
AcDbBlockEnd
  0
ENDSEC
  0
SECTION
  2
ENTITIES
  0
LWPOLYLINE
  5
104
330
1F
100
AcDbEntity
  8
0
  6
CONTINUOUS
 62
     7
100
AcDbPolyline
 90
       15
 70
   128
 43
0.0
 10
15.2729155737185
 20
17.27189641337993
 10
15.27223433972463
 20
17.29096450746931
 10
15.26973487506884
 20
17.30991938106802
 10
15.26527734730057
 20
17.32845042555406
 10
15.25860592149646
 20
17.3465162648963
 10
15.24970236614929
 20
17.36367314236197
 10
15.23865812893978
 20
17.37942255497016
 10
15.22731884499592
 20
17.39173249622989
 10
15.21452835551408
 20
17.40262559761874
 10
15.2005835015691
 20
17.41188810646707
 10
15.18676739410767
 20
17.41895183297025
 10
15.17226531779548
 20
17.42459364982527
 10
15.1573235692313
 20
17.42881933599599
 10
15.13436940898563
 20
17.43263518235207
 10
15.11111217484351
 20
17.43369981225492
  0
LWPOLYLINE
  5
105
330
1F
100
AcDbEntity
  8
0
  6
CONTINUOUS
 62
     7
100
AcDbPolyline
 90
       13
 70
   128
 43
0.0
 10
15.32231376877547
 20
11.63949164956506
 10
15.30031510357026
 20
13.21128575409473
 10
15.28967157481923
 20
13.9971979032282
 10
15.27972824552801
 20
14.78313610378373
 10
15.2760753704513
 20
15.09754908098919
 10
15.27280807587363
 20
15.41197983486892
 10
15.27017979889914
 20
15.72642519290343
 10
15.26844397663198
 20
16.04088198257325
 10
15.26785404617631
 20
16.35534703135889
 10
15.2682561199425
 20
16.58448756604587
 10
15.2693062861537
 20
16.81362239238364
 10
15.2709014031098
 20
17.04276407305654
 10
15.27291557371849
 20
17.27189641337993
  0
LWPOLYLINE
  5
106
330
1F
100
AcDbEntity
  8
0
  6
CONTINUOUS
 62
     7
100
AcDbPolyline
 90
       71
 70
   128
 43
0.0
 10
10.47870741102863
 20
6.716360873710747
 10
10.58221423996941
 20
6.718006720298218
 10
10.68569762381742
 20
6.721847417631495
 10
10.78908792966748
 20
6.72787908422742
 10
10.89231552461443
 20
6.736097838602842
 10
10.9953107757531
 20
6.746499799274611
 10
11.09806192033074
 20
6.759086322452734
 10
11.2005574316967
 20
6.773853848299231
 10
11.30272841250352
 20
6.790791163873972
 10
11.40450596540377
 20
6.809887056236842
 10
11.50582119305
 20
6.831130312447713
 10
11.61139756023605
 20
6.855675319590515
 10
11.7164412401469
 20
6.882569624229181
 10
11.82087491094777
 20
6.911791865583034
 10
11.92462125080385
 20
6.943320682871421
 10
12.02760293788036
 20
6.977134715313676
 10
12.12937479239474
 20
7.013074904282036
 10
12.2303630691558
 20
7.051272903889134
 10
12.33049413076268
 20
7.09169929680882
 10
12.42969433981454
 20
7.134324665714962
 10
12.52789005891054
 20
7.179119593281417
 10
12.62506810105261
 20
7.226081454668238
 10
12.72121729512355
 20
7.275202124642407
 10
12.81626760141613
 20
7.326444204805458
 10
12.91014898022312
 20
7.379770296758938
 10
13.00279139183731
 20
7.435143002104389
 10
13.09886121689629
 20
7.495575021088325
 10
13.1935346689301
 20
7.55825525717991
 10
13.28673563141857
 20
7.623131213846598
 10
13.37838798784152
 20
7.690150394555852
 10
13.46841562167874
 20
7.759260302775124
 10
13.55236104589663
 20
7.826793620781987
 10
13.63482059969605
 20
7.896194528327729
 10
13.71573457498285
 20
7.967410962355178
 10
13.7950432636629
 20
8.040390859807169
 10
13.87268695764207
 20
8.115082157626533
 10
13.94865408381846
 20
8.191478112323185
 10
14.02293670456831
 20
8.269567368792035
 10
14.09548113050833
 20
8.34929150275621
 10
14.16623367225525
 20
8.430592089938858
 10
14.23514064042578
 20
8.513410706063126
 10
14.30560217735368
 20
8.60213411223909
 10
14.37400267107709
 20
8.692513615665298
 10
14.44028768019187
 20
8.784474501887544
 10
14.50440276329385
 20
8.877942056451637
 10
14.56629347897891
 20
8.972841564903379
 10
14.62294375239334
 20
9.064188329569415
 10
14.67757677855154
 20
9.156801309621004
 10
14.73015352435398
 20
9.250611726861487
 10
14.78063495670115
 20
9.345550803094191
 10
14.82898204249353
 20
9.441549760122446
 10
14.875186082
 20
9.538598476650104
 10
14.91924329612398
 20
9.636683607337579
 10
14.96112243046205
 20
9.735732350007175
 10
15.00079223061083
 20
9.835671902481223
 10
15.03822144216692
 20
9.936429462582038
 10
15.07515875630857
 20
10.0432632693998
 10
15.10960659136187
 20
10.15097378987062
 10
15.14153838896583
 20
10.25947259521832
 10
15.17092759075946
 20
10.36867125666674
 10
15.19774763838176
 20
10.47848134543971
 10
15.22262341503432
 20
10.59194442504319
 10
15.24477753572127
 20
10.7060210563537
 10
15.26419269330709
 20
10.82061235563378
 10
15.28085158065626
 20
10.93561943914596
 10
15.29473689063328
 20
11.05094342315279
 10
15.30598548582114
 20
11.16827971055156
 10
15.3143729212368
 20
11.28590764214246
 10
15.31989374687274
 20
11.4037222526752
 10
15.32254251272147
 20
11.52161857689949
 10
15.32231376877547
 20
11.63949164956506
  0
LWPOLYLINE
  5
107
330
1F
100
AcDbEntity
  8
0
  6
CONTINUOUS
 62
     7
100
AcDbPolyline
 90
        6
 70
   128
 43
0.0
 10
4.670123770294769
 20
6.669104609956185
 10
6.122196597221223
 20
6.683440803984221
 10
7.574308200504854
 20
6.696336847004922
 10
8.542421768285054
 20
6.703966601469899
 10
9.510555443501672
 20
6.710682571549001
 10
10.47870741102863
 20
6.716360873710755
  0
LWPOLYLINE
  5
108
330
1F
100
AcDbEntity
  8
0
  6
CONTINUOUS
 62
     7
100
AcDbPolyline
 90
       15
 70
   128
 43
0.0
 10
4.508320371419739
 20
6.830908008831173
 10
4.508985710101237
 20
6.811844399140258
 10
4.511467142362282
 20
6.792892311266523
 10
4.515905512699896
 20
6.774361821716022
 10
4.522558006228051
 20
6.756293162793703
 10
4.531444201485405
 20
6.739131611253328
 10
4.542473877038317
 20
6.723376912138101
 10
4.553794526314629
 20
6.711071412765531
 10
4.56656696700661
 20
6.700181571925099
 10
4.580494341272471
 20
6.690921512319976
 10
4.594283228428189
 20
6.68386452280507
 10
4.608757298574239
 20
6.678226345858652
 10
4.623670720890014
 20
6.674001044397916
 10
4.64674433722058
 20
6.67016275503258
 10
4.670123770294759
 20
6.669104609956183
  0
LWPOLYLINE
  5
109
330
1F
100
AcDbEntity
  8
0
  6
CONTINUOUS
 62
     7
100
AcDbPolyline
 90
       11
 70
   128
 43
0.0
 10
4.564857311917068
 20
17.39153834980161
 10
4.565671709004111
 20
16.43857768803617
 10
4.565092507443062
 20
15.48561265836934
 10
4.563171302991392
 20
14.53265086913439
 10
4.559959691406587
 20
13.57969992866457
 10
4.555509268446122
 20
12.62676744529312
 10
4.548358287915752
 20
11.43550095727977
 10
4.539683241272957
 20
10.24426139060812
 10
4.529701563010613
 20
9.053050174471426
 10
4.518630687621605
 20
7.861868738062904
 10
4.508320371419738
 20
6.830908008831173
  0
LWPOLYLINE
  5
10A
330
1F
100
AcDbEntity
  8
0
  6
CONTINUOUS
 62
     7
100
AcDbPolyline
 90
       15
 70
   128
 43
0.0
 10
4.728751868218459
 20
17.5512505912502
 10
4.709343607283095
 20
17.55065320221261
 10
4.690041753782167
 20
17.54820425626844
 10
4.671162647871667
 20
17.54375706040527
 10
4.652742799856297
 20
17.53704373575032
 10
4.635245681278021
 20
17.52803862397874
 10
4.619190724166999
 20
17.51682888888029
 10
4.606750340984063
 20
17.50538711392614
 10
4.595750517922771
 20
17.4924678620162
 10
4.58641414408387
 20
17.47837312312237
 10
4.579368582175037
 20
17.46451936998622
 10
4.573754926556211
 20
17.44997845105133
 10
4.569568920764097
 20
17.43499868515932
 10
4.565980591523905
 20
17.41340730616368
 10
4.564857311917067
 20
17.39153834980161
  0
LWPOLYLINE
  5
10B
330
1F
100
AcDbEntity
  8
0
  6
CONTINUOUS
 62
     7
100
AcDbPolyline
 90
       14
 70
   128
 43
0.0
 10
15.11111217484351
 20
17.43369981225492
 10
14.76452331234189
 20
17.4308077087914
 10
14.41791418107482
 20
17.42901921865771
 10
14.07123467624011
 20
17.42873255766032
 10
13.72456070777158
 20
17.42997526904925
 10
13.20794058727122
 20
17.43375009950856
 10
12.69135542009521
 20
17.43897652903811
 10
12.17479778572732
 20
17.4452837692804
 10
11.65826026365132
 20
17.45230103187793
 10
11.14173543335101
 20
17.45965752847318
 10
10.62521587431014
 20
17.46698247070864
 10
9.075593745436501
 20
17.48880638933418
 10
7.525985402048132
 20
17.5109673955335
 10
4.728751868218459
 20
17.5512505912502
  0
CIRCLE
  5
10C
330
1F
100
AcDbEntity
  8
0
  6
CONTINUOUS
 62
     7
100
AcDbCircle
 10
14.17870741102862
 20
16.33949164956506
 30
0.0
 40
0.5999999999999979
  0
ARC
  5
10D
330
1F
100
AcDbEntity
  8
0
  6
CONTINUOUS
 62
     7
100
AcDbCircle
 10
10.47870741102863
 20
11.63949164956506
 30
0.0
 40
4.992272954677408
100
AcDbArc
 50
270.0000000000008
 51
0.0
  0
LINE
  5
10E
330
1F
100
AcDbEntity
  8
0
  6
CONTINUOUS
 62
     7
100
AcDbLine
 10
4.486434456351212
 20
17.46996120536747
 30
0.0
 11
4.486434456351212
 21
6.809022093762647
 31
0.0
  0
LINE
  5
110
330
1F
100
AcDbEntity
  8
0
  6
CONTINUOUS
 62
     7
100
AcDbLine
 10
15.99442175729991
 20
11.63949164956506
 30
0.0
 11
15.99442175729991
 21
18.05526691313444
 31
0.0
  0
LINE
  5
111
330
1F
100
AcDbEntity
  8
0
  6
CONTINUOUS
 62
     7
100
AcDbLine
 10
3.962993064757334
 20
18.05526691313444
 30
0.0
 11
3.962993064757334
 21
6.22371638599569
 31
0.0
  0
LINE
  5
114
330
1F
100
AcDbEntity
  8
0
  6
CONTINUOUS
 62
     7
100
AcDbLine
 10
15.47098036570603
 20
11.63949164956506
 30
0.0
 11
15.47098036570603
 21
17.46996120536747
 31
0.0
  0
ELLIPSE
  5
115
330
1F
100
AcDbEntity
  8
0
  6
CONTINUOUS
 62
     7
100
AcDbEllipse
 10
15.2199463088925
 20
17.38073054742892
 30
0.0
 11
0.2087437841940077
 21
0.2030626225458932
 31
0.0
210
0.0
220
0.0
230
0.9999999999999998
 40
0.6866956083138418
 41
5.69425567889128
 42
6.303272597652125
  0
ELLIPSE
  5
117
330
1F
100
AcDbEntity
  8
0
  6
CONTINUOUS
 62
     7
100
AcDbEllipse
 10
4.737468513164748
 20
6.898252751701194
 30
0.0
 11
0.2030626225458931
 21
0.2087437841940058
 31
0.0
210
0.0
220
0.0
230
1.0
 40
0.6866956083138493
 41
3.121505363117349
 42
3.730522281878133
  0
LINE
  5
118
330
1F
100
AcDbEntity
  8
0
  6
CONTINUOUS
 62
     7
100
AcDbLine
 10
4.648237855226201
 20
6.647218694887657
 30
0.0
 11
10.47870741102863
 21
6.647218694887654
 31
0.0
  0
ELLIPSE
  5
11B
330
1F
100
AcDbEntity
  8
0
  6
CONTINUOUS
 62
     7
100
AcDbEllipse
 10
4.737468513164749
 20
17.38073054742892
 30
0.0
 11
0.2087437841940077
 21
-0.2030626225458967
 31
0.0
210
0.0
220
0.0
230
1.0
 40
0.6866956083138341
 41
3.121505363117293
 42
3.730522281878148
  0
ELLIPSE
  5
11C
330
1F
100
AcDbEntity
  8
0
  6
CONTINUOUS
 62
     7
100
AcDbEllipse
 10
4.737468513164748
 20
6.898252751701193
 30
0.0
 11
0.208743784194005
 21
0.2030626225458941
 31
0.0
210
0.0
220
0.0
230
1.0
 40
0.6866956083138449
 41
2.55266302530146
 42
3.161679944062294
  0
ELLIPSE
  5
11F
330
1F
100
AcDbEntity
  8
0
  6
CONTINUOUS
 62
     7
100
AcDbEllipse
 10
15.2199463088925
 20
17.38073054742892
 30
0.0
 11
0.2030626225458931
 21
0.2087437841940058
 31
0.0
210
0.0
220
0.0
230
1.0
 40
0.6866956083138406
 41
6.263098016707181
 42
6.872114935467933
  0
LINE
  5
120
330
1F
100
AcDbEntity
  8
0
  6
CONTINUOUS
 62
     7
100
AcDbLine
 10
15.30917696683104
 20
17.63176460424246
 30
0.0
 11
4.648237855226203
 21
17.63176460424246
 31
0.0
  0
ELLIPSE
  5
121
330
1F
100
AcDbEntity
  8
0
  6
CONTINUOUS
 62
     7
100
AcDbEllipse
 10
4.737468513164749
 20
17.38073054742892
 30
0.0
 11
-0.2030626225458931
 21
0.2087437841940058
 31
0.0
210
0.0
220
0.0
230
1.0
 40
0.6866956083138472
 41
5.694255678891274
 42
6.303272597652037
  0
LINE
  5
125
330
1F
100
AcDbEntity
  8
0
  6
CONTINUOUS
 62
     7
100
AcDbLine
 10
4.062932147459251
 20
6.123777303293774
 30
0.0
 11
10.47870741102863
 21
6.123777303293774
 31
0.0
  0
LINE
  5
126
330
1F
100
AcDbEntity
  8
0
  6
CONTINUOUS
 62
     7
100
AcDbLine
 10
15.894482674598
 20
18.15520599583634
 30
0.0
 11
4.062932147459251
 21
18.15520599583634
 31
0.0
  0
ELLIPSE
  5
127
330
1F
100
AcDbEntity
  8
0
  6
CONTINUOUS
 62
     7
100
AcDbEllipse
 10
4.063054019187219
 20
18.05514504140647
 30
0.0
 11
0.0707968544599185
 21
-0.0707968544599211
 31
0.0
210
0.0
220
0.0
230
1.0
 40
0.9987827659587054
 41
2.356803477777924
 42
3.926381829401695
  0
ARC
  5
128
330
1F
100
AcDbEntity
  8
0
  6
CONTINUOUS
 62
     7
100
AcDbCircle
 10
10.47870741102863
 20
11.63949164956506
 30
0.0
 40
5.515714346271288
100
AcDbArc
 50
270.0000000000008
 51
0.0
  0
ELLIPSE
  5
129
330
1F
100
AcDbEntity
  8
0
  6
CONTINUOUS
 62
     7
100
AcDbEllipse
 10
15.89436080287003
 20
18.05514504140647
 30
0.0
 11
0.0707968544599176
 21
0.0707968544599176
 31
0.0
210
0.0
220
0.0
230
1.0
 40
0.9987827659587368
 41
5.498396131367746
 42
7.067974482991453
  0
ELLIPSE
  5
12A
330
1F
100
AcDbEntity
  8
0
  6
CONTINUOUS
 62
     7
100
AcDbEllipse
 10
4.063054019187219
 20
6.223838257723657
 30
0.0
 11
0.0707968544599185
 21
0.0707968544599202
 31
0.0
210
0.0
220
0.0
230
1.0
 40
0.9987827659587118
 41
2.356803477777878
 42
3.926381829401679
  0
CIRCLE
  5
12B
330
1F
100
AcDbEntity
  8
0
  6
CONTINUOUS
 62
     7
100
AcDbCircle
 10
14.17870741102862
 20
16.33949164956506
 30
0.0
 40
0.4499999999626656
  0
ENDSEC
  0
SECTION
  2
OBJECTS
  0
DICTIONARY
  5
C
330
0
100
AcDbDictionary
  3
ACAD_GROUP
350
D
  3
ACAD_LAYOUT
350
1A
  3
ACAD_MLINESTYLE
350
17
  3
ACAD_PLOTSETTINGS
350
19
  3
ACAD_PLOTSTYLENAME
350
E
  3
ACDBHEADERROUNDTRIPXREC
350
1D5
  3
ACDBVARIABLEDICTIONARY
350
1CF
  0
DICTIONARY
  5
197
330
1F
100
AcDbDictionary
280
     1
  3
ACAD_LAYOUTSELFREF
360
1F7
  0
DICTIONARY
  5
199
330
1B
100
AcDbDictionary
280
     1
  3
ACAD_LAYOUTSELFREF
360
1F6
  0
DICTIONARY
  5
D
102
{ACAD_REACTORS
330
C
102
}
330
C
100
AcDbDictionary
  0
DICTIONARY
  5
1A
102
{ACAD_REACTORS
330
C
102
}
330
C
100
AcDbDictionary
  0
DICTIONARY
  5
17
102
{ACAD_REACTORS
330
C
102
}
330
C
100
AcDbDictionary
  3
STANDARD
350
18
  0
DICTIONARY
  5
19
102
{ACAD_REACTORS
330
C
102
}
330
C
100
AcDbDictionary
  0
ACDBDICTIONARYWDFLT
  5
E
102
{ACAD_REACTORS
330
C
102
}
330
C
100
AcDbDictionary
281
     1
  3
Normal
350
F
100
AcDbDictionaryWithDefault
340
F
  0
DICTIONARY
  5
1D5
102
{ACAD_REACTORS
330
C
102
}
330
C
100
AcDbDictionary
  3
CEPSNTYPE
350
1DF
  3
DIMSTYLEDATA
350
1E3
  3
FINGERPRINTGUID
350
1E0
  3
HYPERLINKBASE
350
1D8
  3
INSUNITS
350
1DE
  3
LAYOUTDICT
350
1DA
  3
LWETCUNION
350
1DD
  3
PLOTSETDICT
350
1DB
  3
PLOTSTYLNAMDICT
350
1DC
  3
PSVPSCALE
350
1E2
  3
PUCSBASE
350
1E6
  3
PUCSORGBACK
350
1EC
  3
PUCSORGBOTTOM
350
1E8
  3
PUCSORGFRONT
350
1EB
  3
PUCSORGLEFT
350
1E9
  3
PUCSORGRIGHT
350
1EA
  3
PUCSORGTOP
350
1E7
  3
PUCSORTHOREF
350
1E4
  3
PUCSORTHOVIEW
350
1E5
  3
STYLESHEET
350
1D9
  3
TSTACKALIGN
350
1D6
  3
TSTACKSIZE
350
1D7
  3
UCSBASE
350
1EF
  3
UCSORGBACK
350
1F5
  3
UCSORGBOTTOM
350
1F1
  3
UCSORGFRONT
350
1F4
  3
UCSORGLEFT
350
1F2
  3
UCSORGRIGHT
350
1F3
  3
UCSORGTOP
350
1F0
  3
UCSORTHOREF
350
1ED
  3
UCSORTHOVIEW
350
1EE
  3
VERSIONGUID
350
1E1
  0
DICTIONARY
  5
1CF
102
{ACAD_REACTORS
330
C
102
}
330
C
100
AcDbDictionary
  3
DIMASSOC
350
1D0
  0
XRECORD
  5
1F7
102
{ACAD_REACTORS
330
197
102
}
330
197
100
AcDbXrecord
340
1F
  0
XRECORD
  5
1F6
102
{ACAD_REACTORS
330
199
102
}
330
199
100
AcDbXrecord
340
1B
  0
MLINESTYLE
  5
18
102
{ACAD_REACTORS
330
17
102
}
330
17
100
AcDbMlineStyle
  2
STANDARD
 70
     0
  3

 62
   256
 51
90.0
 52
90.0
 71
     2
 49
0.5
 62
   256
  6
BYLAYER
 49
-0.5
 62
   256
  6
BYLAYER
  0
ACDBPLACEHOLDER
  5
F
102
{ACAD_REACTORS
330
E
102
}
330
E
100
AcDbPlaceHolder
280
     0
  0
XRECORD
  5
1DF
102
{ACAD_REACTORS
330
1D5
102
}
330
1D5
100
AcDbXrecord
 90
        0
  0
XRECORD
  5
1E3
102
{ACAD_REACTORS
330
1D5
102
}
330
1D5
100
AcDbXrecord
1000
DSTYLE
1002
{
1070
   278
 70
    44
1002
}
  0
XRECORD
  5
1E0
102
{ACAD_REACTORS
330
1D5
102
}
330
1D5
100
AcDbXrecord
  1
{AAD7E4DF-92B9-48CB-9B3A-BE3BC6413287}
  0
XRECORD
  5
1D8
102
{ACAD_REACTORS
330
1D5
102
}
330
1D5
100
AcDbXrecord
  1

  0
XRECORD
  5
1DE
102
{ACAD_REACTORS
330
1D5
102
}
330
1D5
100
AcDbXrecord
 90
        4
  0
XRECORD
  5
1DA
102
{ACAD_REACTORS
330
1D5
102
}
330
1D5
100
AcDbXrecord
340
1A
  0
XRECORD
  5
1DD
102
{ACAD_REACTORS
330
1D5
102
}
330
1D5
100
AcDbXrecord
 90
    10269
  0
XRECORD
  5
1DB
102
{ACAD_REACTORS
330
1D5
102
}
330
1D5
100
AcDbXrecord
340
19
  0
XRECORD
  5
1DC
102
{ACAD_REACTORS
330
1D5
102
}
330
1D5
100
AcDbXrecord
340
E
  0
XRECORD
  5
1E2
102
{ACAD_REACTORS
330
1D5
102
}
330
1D5
100
AcDbXrecord
 40
0.0
  0
XRECORD
  5
1E6
102
{ACAD_REACTORS
330
1D5
102
}
330
1D5
100
AcDbXrecord
340
0
  0
XRECORD
  5
1EC
102
{ACAD_REACTORS
330
1D5
102
}
330
1D5
100
AcDbXrecord
 10
0.0
 20
0.0
 30
0.0
  0
XRECORD
  5
1E8
102
{ACAD_REACTORS
330
1D5
102
}
330
1D5
100
AcDbXrecord
 10
0.0
 20
0.0
 30
0.0
  0
XRECORD
  5
1EB
102
{ACAD_REACTORS
330
1D5
102
}
330
1D5
100
AcDbXrecord
 10
0.0
 20
0.0
 30
0.0
  0
XRECORD
  5
1E9
102
{ACAD_REACTORS
330
1D5
102
}
330
1D5
100
AcDbXrecord
 10
0.0
 20
0.0
 30
0.0
  0
XRECORD
  5
1EA
102
{ACAD_REACTORS
330
1D5
102
}
330
1D5
100
AcDbXrecord
 10
0.0
 20
0.0
 30
0.0
  0
XRECORD
  5
1E7
102
{ACAD_REACTORS
330
1D5
102
}
330
1D5
100
AcDbXrecord
 10
0.0
 20
0.0
 30
0.0
  0
XRECORD
  5
1E4
102
{ACAD_REACTORS
330
1D5
102
}
330
1D5
100
AcDbXrecord
340
0
  0
XRECORD
  5
1E5
102
{ACAD_REACTORS
330
1D5
102
}
330
1D5
100
AcDbXrecord
 70
     0
  0
XRECORD
  5
1D9
102
{ACAD_REACTORS
330
1D5
102
}
330
1D5
100
AcDbXrecord
  1

  0
XRECORD
  5
1D6
102
{ACAD_REACTORS
330
1D5
102
}
330
1D5
100
AcDbXrecord
 90
        1
  0
XRECORD
  5
1D7
102
{ACAD_REACTORS
330
1D5
102
}
330
1D5
100
AcDbXrecord
 90
       70
  0
XRECORD
  5
1EF
102
{ACAD_REACTORS
330
1D5
102
}
330
1D5
100
AcDbXrecord
340
0
  0
XRECORD
  5
1F5
102
{ACAD_REACTORS
330
1D5
102
}
330
1D5
100
AcDbXrecord
 10
0.0
 20
0.0
 30
0.0
  0
XRECORD
  5
1F1
102
{ACAD_REACTORS
330
1D5
102
}
330
1D5
100
AcDbXrecord
 10
0.0
 20
0.0
 30
0.0
  0
XRECORD
  5
1F4
102
{ACAD_REACTORS
330
1D5
102
}
330
1D5
100
AcDbXrecord
 10
0.0
 20
0.0
 30
0.0
  0
XRECORD
  5
1F2
102
{ACAD_REACTORS
330
1D5
102
}
330
1D5
100
AcDbXrecord
 10
0.0
 20
0.0
 30
0.0
  0
XRECORD
  5
1F3
102
{ACAD_REACTORS
330
1D5
102
}
330
1D5
100
AcDbXrecord
 10
0.0
 20
0.0
 30
0.0
  0
XRECORD
  5
1F0
102
{ACAD_REACTORS
330
1D5
102
}
330
1D5
100
AcDbXrecord
 10
0.0
 20
0.0
 30
0.0
  0
XRECORD
  5
1ED
102
{ACAD_REACTORS
330
1D5
102
}
330
1D5
100
AcDbXrecord
340
0
  0
XRECORD
  5
1EE
102
{ACAD_REACTORS
330
1D5
102
}
330
1D5
100
AcDbXrecord
 70
     0
  0
XRECORD
  5
1E1
102
{ACAD_REACTORS
330
1D5
102
}
330
1D5
100
AcDbXrecord
  1
{7AE0EBC7-D41B-4D0B-8B78-9764ECA94727}
  0
DICTIONARYVAR
  5
1D0
102
{ACAD_REACTORS
330
1CF
102
}
330
1CF
100
DictionaryVariables
280
     0
  1
1
  0
ENDSEC
  0
EOF
