  0
SECTION
  2
HEADER
  9
$ACADVER
  1
AC1014
  9
$ACADMAINTVER
 70
     9
  9
$DWGCODEPAGE
  3
ANSI_1250
  9
$INSBASE
 10
0.0
 20
0.0
 30
0.0
  9
$EXTMIN
 10
4.41616488066632
 20
6.554002719823379
 30
0.0
  9
$EXTMAX
 10
14.58993541740959
 20
16.72777325656663
 30
0.0
  9
$LIMMIN
 10
0.0
 20
0.0
  9
$LIMMAX
 10
0.0
 20
0.0
  9
$ORTHOMODE
 70
     0
  9
$REGENMODE
 70
     1
  9
$FILLMODE
 70
     1
  9
$QTEXTMODE
 70
     0
  9
$MIRRTEXT
 70
     1
  9
$DRAGMODE
 70
     2
  9
$LTSCALE
 40
1.0
  9
$OSMODE
 70
  3007
  9
$ATTMODE
 70
     1
  9
$TEXTSIZE
 40
2.5
  9
$TRACEWID
 40
1.0
  9
$TEXTSTYLE
  7
STANDARD
  9
$CLAYER
  8
0
  9
$CELTYPE
  6
BYLAYER
  9
$CECOLOR
 62
   256
  9
$CELTSCALE
 40
1.0
  9
$DELOBJ
 70
     1
  9
$DISPSILH
 70
     0
  9
$DIMSCALE
 40
1.0
  9
$DIMASZ
 40
0.3
  9
$DIMEXO
 40
0.01
  9
$DIMDLI
 40
3.75
  9
$DIMRND
 40
0.0
  9
$DIMDLE
 40
0.0
  9
$DIMEXE
 40
0.1
  9
$DIMTP
 40
0.0
  9
$DIMTM
 40
0.0
  9
$DIMTXT
 40
0.2822222222222222
  9
$DIMCEN
 40
2.5
  9
$DIMTSZ
 40
0.0
  9
$DIMTOL
 70
     0
  9
$DIMLIM
 70
     0
  9
$DIMTIH
 70
     1
  9
$DIMTOH
 70
     1
  9
$DIMSE1
 70
     0
  9
$DIMSE2
 70
     0
  9
$DIMTAD
 70
     1
  9
$DIMZIN
 70
     0
  9
$DIMBLK
  1

  9
$DIMASO
 70
     1
  9
$DIMSHO
 70
     1
  9
$DIMPOST
  1

  9
$DIMAPOST
  1

  9
$DIMALT
 70
     0
  9
$DIMALTD
 70
     3
  9
$DIMALTF
 40
0.3937007874015748
  9
$DIMLFAC
 40
10.0
  9
$DIMTOFL
 70
     1
  9
$DIMTVP
 40
0.0
  9
$DIMTIX
 70
     0
  9
$DIMSOXD
 70
     0
  9
$DIMSAH
 70
     0
  9
$DIMBLK1
  1

  9
$DIMBLK2
  1

  9
$DIMSTYLE
  2
ISO-25
  9
$DIMCLRD
 70
     0
  9
$DIMCLRE
 70
     0
  9
$DIMCLRT
 70
     0
  9
$DIMTFAC
 40
1.0
  9
$DIMGAP
 40
0.1524
  9
$DIMJUST
 70
     0
  9
$DIMSD1
 70
     0
  9
$DIMSD2
 70
     0
  9
$DIMTOLJ
 70
     0
  9
$DIMTZIN
 70
     0
  9
$DIMALTZ
 70
     0
  9
$DIMALTTZ
 70
     0
  9
$DIMFIT
 70
     3
  9
$DIMUPT
 70
     0
  9
$DIMUNIT
 70
     2
  9
$DIMDEC
 70
     2
  9
$DIMTDEC
 70
     2
  9
$DIMALTU
 70
     2
  9
$DIMALTTD
 70
     3
  9
$DIMTXSTY
  7
STANDARD
  9
$DIMAUNIT
 70
     0
  9
$LUNITS
 70
     2
  9
$LUPREC
 70
     2
  9
$SKETCHINC
 40
1.0
  9
$FILLETRAD
 40
10.0
  9
$AUNITS
 70
     0
  9
$AUPREC
 70
     0
  9
$MENU
  1
.
  9
$ELEVATION
 40
0.0
  9
$PELEVATION
 40
0.0
  9
$THICKNESS
 40
0.0
  9
$LIMCHECK
 70
     0
  9
$BLIPMODE
 70
     0
  9
$CHAMFERA
 40
10.0
  9
$CHAMFERB
 40
10.0
  9
$CHAMFERC
 40
20.0
  9
$CHAMFERD
 40
0.0
  9
$SKPOLY
 70
     0
  9
$TDCREATE
 40
2453966.348037824
  9
$TDUPDATE
 40
2453966.356784386
  9
$TDINDWG
 40
0.0016574537
  9
$TDUSRTIMER
 40
0.0016574537
  9
$USRTIMER
 70
     1
  9
$ANGBASE
 50
0.0
  9
$ANGDIR
 70
     0
  9
$PDMODE
 70
     0
  9
$PDSIZE
 40
-1.0
  9
$PLINEWID
 40
0.0
  9
$COORDS
 70
     2
  9
$SPLFRAME
 70
     0
  9
$SPLINETYPE
 70
     6
  9
$SPLINESEGS
 70
     8
  9
$ATTDIA
 70
     0
  9
$ATTREQ
 70
     1
  9
$HANDLING
 70
 22529
  9
$HANDSEED
  5
1BE
  9
$SURFTAB1
 70
     6
  9
$SURFTAB2
 70
     6
  9
$SURFTYPE
 70
     6
  9
$SURFU
 70
     6
  9
$SURFV
 70
     6
  9
$UCSNAME
  2

  9
$UCSORG
 10
0.0
 20
0.0
 30
0.0
  9
$UCSXDIR
 10
1.0
 20
0.0
 30
0.0
  9
$UCSYDIR
 10
0.0
 20
1.0
 30
0.0
  9
$PUCSNAME
  2

  9
$PUCSORG
 10
0.0
 20
0.0
 30
0.0
  9
$PUCSXDIR
 10
1.0
 20
0.0
 30
0.0
  9
$PUCSYDIR
 10
0.0
 20
1.0
 30
0.0
  9
$USERI1
 70
     0
  9
$USERI2
 70
     0
  9
$USERI3
 70
     0
  9
$USERI4
 70
     0
  9
$USERI5
 70
     0
  9
$USERR1
 40
0.0
  9
$USERR2
 40
0.0
  9
$USERR3
 40
0.0
  9
$USERR4
 40
0.0
  9
$USERR5
 40
0.0
  9
$WORLDVIEW
 70
     1
  9
$SHADEDGE
 70
     3
  9
$SHADEDIF
 70
    70
  9
$TILEMODE
 70
     1
  9
$MAXACTVP
 70
    48
  9
$PINSBASE
 10
0.0
 20
0.0
 30
0.0
  9
$PLIMCHECK
 70
     0
  9
$PEXTMIN
 10
1.000000000000000E+20
 20
1.000000000000000E+20
 30
1.000000000000000E+20
  9
$PEXTMAX
 10
-1.000000000000000E+20
 20
-1.000000000000000E+20
 30
-1.000000000000000E+20
  9
$PLIMMIN
 10
0.0
 20
0.0
  9
$PLIMMAX
 10
420.0
 20
297.0
  9
$UNITMODE
 70
     0
  9
$VISRETAIN
 70
     1
  9
$PLINEGEN
 70
     0
  9
$PSLTSCALE
 70
     1
  9
$TREEDEPTH
 70
  3020
  9
$PICKSTYLE
 70
     1
  9
$CMLSTYLE
  2
STANDARD
  9
$CMLJUST
 70
     0
  9
$CMLSCALE
 40
20.0
  9
$PROXYGRAPHICS
 70
     1
  9
$MEASUREMENT
 70
     1
  0
ENDSEC
  0
SECTION
  2
CLASSES
  0
CLASS
  1
ACDBDICTIONARYWDFLT
  2
AcDbDictionaryWithDefault
  3
AutoCAD 2000
 90
        0
280
     0
281
     0
  0
CLASS
  1
ACDBPLACEHOLDER
  2
AcDbPlaceHolder
  3
AutoCAD 2000
 90
        0
280
     0
281
     0
  0
CLASS
  1
LAYOUT
  2
AcDbLayout
  3
AutoCAD 2000
 90
        0
280
     0
281
     0
  0
CLASS
  1
DICTIONARYVAR
  2
AcDbDictionaryVar
  3
AutoCAD 2000
 90
        0
280
     0
281
     0
  0
CLASS
  1
LONG_TRANSACTION
  2
AcDbLongTransaction
  3
AutoCAD 2000
 90
        0
280
     0
281
     0
  0
CLASS
  1
LWPOLYLINE
  2
AcDbPolyline
  3
AutoCAD 2000
 90
        0
280
     0
281
     1
  0
CLASS
  1
HATCH
  2
AcDbHatch
  3
AutoCAD 2000
 90
        0
280
     0
281
     1
  0
CLASS
  1
XRECORD
  2
AcDbXrecord
  3
AutoCAD 2000
 90
        0
280
     0
281
     0
  0
CLASS
  1
LONG_TRANSACTION
  2
AcDbLongTransaction
  3
AutoCAD 2000
 90
        0
280
     0
281
     0
  0
CLASS
  1
LWPOLYLINE
  2
AcDbPolyline
  3
AutoCAD 2000
 90
        0
280
     0
281
     1
  0
CLASS
  1
HATCH
  2
AcDbHatch
  3
AutoCAD 2000
 90
        0
280
     0
281
     1
  0
CLASS
  1
XRECORD
  2
AcDbXrecord
  3
AutoCAD 2000
 90
        0
280
     0
281
     0
  0
ENDSEC
  0
SECTION
  2
TABLES
  0
TABLE
  2
VPORT
  5
8
330
0
100
AcDbSymbolTable
 70
     2
  0
VPORT
  5
199
330
8
100
AcDbSymbolTableRecord
100
AcDbViewportTableRecord
  2
*ACTIVE
 70
     0
 10
0.0
 20
0.0
 11
1.0
 21
1.0
 12
9.503537813170748
 22
11.64154820696165
 13
0.0
 23
0.0
 14
10.0
 24
10.0
 15
10.0
 25
10.0
 16
0.0
 26
0.0
 36
1.0
 17
0.0
 27
0.0
 37
0.0
 40
10.2709759799209
 41
1.674961119751166
 42
50.0
 43
0.0
 44
0.0
 50
0.0
 51
0.0
 71
     0
 72
  2000
 73
     1
 74
     3
 75
     0
 76
     0
 77
     0
 78
     0
  0
ENDTAB
  0
TABLE
  2
LTYPE
  5
5
330
0
100
AcDbSymbolTable
 70
     1
  0
LTYPE
  5
14
330
5
100
AcDbSymbolTableRecord
100
AcDbLinetypeTableRecord
  2
BYBLOCK
 70
     0
  3

 72
    65
 73
     0
 40
0.0
  0
LTYPE
  5
15
330
5
100
AcDbSymbolTableRecord
100
AcDbLinetypeTableRecord
  2
BYLAYER
 70
     0
  3

 72
    65
 73
     0
 40
0.0
  0
LTYPE
  5
16
330
5
100
AcDbSymbolTableRecord
100
AcDbLinetypeTableRecord
  2
CONTINUOUS
 70
     0
  3
Solid line
 72
    65
 73
     0
 40
0.0
  0
ENDTAB
  0
TABLE
  2
LAYER
  5
2
330
0
100
AcDbSymbolTable
 70
     1
  0
LAYER
  5
10
330
2
100
AcDbSymbolTableRecord
100
AcDbLayerTableRecord
  2
0
 70
     0
 62
     7
  6
CONTINUOUS
  0
ENDTAB
  0
TABLE
  2
STYLE
  5
3
330
0
100
AcDbSymbolTable
 70
     1
  0
STYLE
  5
11
330
3
100
AcDbSymbolTableRecord
100
AcDbTextStyleTableRecord
  2
STANDARD
 70
     0
 40
0.0
 41
1.0
 50
0.0
 71
     0
 42
2.5
  3
ARIAL.TTF
  4

1001
ACAD
1000
Arial
1071
       34
  0
ENDTAB
  0
TABLE
  2
VIEW
  5
6
330
0
100
AcDbSymbolTable
 70
     0
  0
ENDTAB
  0
TABLE
  2
UCS
  5
7
330
0
100
AcDbSymbolTable
 70
     0
  0
ENDTAB
  0
TABLE
  2
APPID
  5
9
330
0
100
AcDbSymbolTable
 70
     1
  0
APPID
  5
12
330
9
100
AcDbSymbolTableRecord
100
AcDbRegAppTableRecord
  2
ACAD
 70
     0
  0
ENDTAB
  0
TABLE
  2
DIMSTYLE
  5
A
330
0
100
AcDbSymbolTable
 70
     1
  0
DIMSTYLE
105
27
330
A
100
AcDbSymbolTableRecord
100
AcDbDimStyleTableRecord
  2
ISO-25
 70
     0
  3

  4

  5

  6

  7

 40
1.0
 41
2.5
 42
0.625
 43
3.75
 44
1.25
 45
0.0
 46
0.0
 47
0.0
 48
0.0
140
2.5
141
2.5
142
0.0
143
0.03937007874016
144
1.0
145
0.0
146
1.0
147
0.625
 71
     0
 72
     0
 73
     0
 74
     0
 75
     0
 76
     0
 77
     1
 78
     8
170
     0
171
     3
172
     1
173
     0
174
     0
175
     0
176
     0
177
     0
178
     0
270
     2
271
     2
272
     2
273
     2
274
     3
340
11
275
     0
280
     0
281
     0
282
     0
283
     0
284
     8
285
     0
286
     0
287
     3
288
     0
  0
ENDTAB
  0
TABLE
  2
BLOCK_RECORD
  5
1
330
0
100
AcDbSymbolTable
 70
     1
  0
BLOCK_RECORD
  5
1F
102
{ACAD_XDICTIONARY
360
15C
102
}
330
1
100
AcDbSymbolTableRecord
100
AcDbBlockTableRecord
  2
*MODEL_SPACE
  0
BLOCK_RECORD
  5
1B
102
{ACAD_XDICTIONARY
360
15E
102
}
330
1
100
AcDbSymbolTableRecord
100
AcDbBlockTableRecord
  2
*PAPER_SPACE
  0
ENDTAB
  0
ENDSEC
  0
SECTION
  2
BLOCKS
  0
BLOCK
  5
20
330
1F
100
AcDbEntity
  8
0
100
AcDbBlockBegin
  2
*MODEL_SPACE
 70
     0
 10
0.0
 20
0.0
 30
0.0
  3
*MODEL_SPACE
  1

  0
ENDBLK
  5
21
330
1F
100
AcDbEntity
  8
0
100
AcDbBlockEnd
  0
BLOCK
  5
1C
330
1B
100
AcDbEntity
 67
     1
  8
0
100
AcDbBlockBegin
  2
*PAPER_SPACE
 70
     0
 10
0.0
 20
0.0
 30
0.0
  3
*PAPER_SPACE
  1

  0
ENDBLK
  5
1D
330
1B
100
AcDbEntity
 67
     1
  8
0
100
AcDbBlockEnd
  0
ENDSEC
  0
SECTION
  2
ENTITIES
  0
LWPOLYLINE
  5
104
330
1F
100
AcDbEntity
  8
0
  6
CONTINUOUS
 62
     7
100
AcDbPolyline
 90
       17
 70
   128
 43
0.0
 10
12.72608738962743
 20
15.84446367411017
 10
12.72540615563357
 20
15.86353176819955
 10
12.72290669097781
 20
15.88248664179828
 10
12.71844916320956
 20
15.90101768628433
 10
12.71365842817616
 20
15.91463280819425
 10
12.70759926044469
 20
15.9278067410303
 10
12.70031023950545
 20
15.9403291788474
 10
12.69182994484875
 20
15.95198981570047
 10
12.68049066090489
 20
15.96429975696019
 10
12.66770017142304
 20
15.97519285834904
 10
12.65375531747806
 20
15.98445536719737
 10
12.63993921001663
 20
15.99151909370054
 10
12.62543713370444
 20
15.99716091055556
 10
12.61049538514026
 20
16.00138659672627
 10
12.59525237311747
 20
16.00424945498457
 10
12.57979640179436
 20
16.00584974046312
 10
12.56428399075249
 20
16.0062670729852
  0
LWPOLYLINE
  5
105
330
1F
100
AcDbEntity
  8
0
  6
CONTINUOUS
 62
     7
100
AcDbPolyline
 90
       10
 70
   128
 43
0.0
 10
12.73464252055377
 20
13.21205891029534
 10
12.73061264506813
 20
13.54975031936739
 10
12.72697171754162
 20
13.8874545889336
 10
12.72394453437774
 20
14.22517519481291
 10
12.72228141929886
 20
14.47851893046006
 10
12.72130933061934
 20
14.73187623069237
 10
12.72110119753229
 20
14.98523751453326
 10
12.72172994923085
 20
15.23859320100614
 10
12.72350851678546
 20
15.54153333604178
 10
12.72608738962748
 20
15.84446367411017
  0
LWPOLYLINE
  5
106
330
1F
100
AcDbEntity
  8
0
  6
CONTINUOUS
 62
     7
100
AcDbPolyline
 90
       76
 70
   128
 43
0.0
 10
7.931879226937613
 20
8.329009121508553
 10
8.034537061648894
 20
8.330836854830788
 10
8.137167535025673
 20
8.334837075524999
 10
8.23970186285425
 20
8.341005886819786
 10
8.342071260920933
 20
8.349339391943752
 10
8.444206945012028
 20
8.359833694125502
 10
8.546097331461014
 20
8.372490176879141
 10
8.647730981545878
 20
8.387305361191961
 10
8.74903982444435
 20
8.404268112780224
 10
8.849955789334174
 20
8.423367297360206
 10
8.950410805393088
 20
8.444591780648172
 10
9.055069120763398
 20
8.469088853447919
 10
9.159196735600479
 20
8.495910324100016
 10
9.262717283285521
 20
8.52503503840238
 10
9.365554397199725
 20
8.556441842152931
 10
9.467631710724283
 20
8.590109581149588
 10
9.562350366737188
 20
8.623623181173197
 10
9.656373927175843
 20
8.659100820997576
 10
9.749641910956539
 20
8.696519255543556
 10
9.842093836995562
 20
8.735855239731966
 10
9.933709172933262
 20
8.777102047019415
 10
10.02446859203323
 20
8.820249573432931
 10
10.11431367921092
 20
8.865269620507909
 10
10.20318601938182
 20
8.91213398977973
 10
10.2910656845849
 20
8.960834279265945
 10
10.37793422256918
 20
9.01135881054772
 10
10.46373568918443
 20
9.06367460965777
 10
10.5484141402804
 20
9.11774870262881
 10
10.63796054803913
 20
9.17768515801011
 10
10.72617153726732
 20
9.23961642982341
 10
10.81298176184762
 20
9.303496011642225
 10
10.89832587566267
 20
9.369277397040084
 10
10.97640019760845
 20
9.432180989750584
 10
11.05316965479901
 20
9.496703897773139
 10
11.12858495232413
 20
9.562804223770568
 10
11.20259679527361
 20
9.63044007040569
 10
11.27518805490726
 20
9.699598339610146
 10
11.34634383575372
 20
9.770263125254807
 10
11.41601842556878
 20
9.842388535100067
 10
11.48416611210826
 20
9.915928676906315
 10
11.55077088825633
 20
9.990869065516799
 10
11.6158192079909
 20
10.06719259326021
 10
11.67926926863236
 20
10.14484967425008
 10
11.74107926750108
 20
10.22379072259998
 10
11.80553297217645
 20
10.30986700124514
 10
11.86806798804642
 20
10.39737979783053
 10
11.92863813284553
 20
10.48626363986799
 10
11.98719722430831
 20
10.57645305486936
 10
12.03984339989997
 20
10.66149152300409
 10
12.09072540744798
 20
10.7476220188974
 10
12.13981071659335
 20
10.83478878856552
 10
12.18706679697707
 20
10.92293607802468
 10
12.23248185928173
 20
11.01204588843435
 10
12.27604715753745
 20
11.1020983125656
 10
12.31773487349224
 20
11.19303501519054
 10
12.35751718889409
 20
11.28479766108129
 10
12.39538384423811
 20
11.37736730178648
 10
12.43132778995452
 20
11.47072334692889
 10
12.46532614002669
 20
11.56480527692983
 10
12.49735600843799
 20
11.65955257221055
 10
12.52951174440487
 20
11.76189066153984
 10
12.55938637524359
 20
11.86494541227896
 10
12.5869582250424
 20
11.96863990706992
 10
12.61220561788955
 20
12.07289722855469
 10
12.6325939879356
 20
12.16556637162311
 10
12.6511545290584
 20
12.25863761679846
 10
12.6678768244482
 20
12.35205660520275
 10
12.68275045729525
 20
12.44576897795801
 10
12.69577115912891
 20
12.53975673292774
 10
12.706937615015
 20
12.63400135675883
 10
12.71624385141429
 20
12.72844781099508
 10
12.72368389478755
 20
12.82304105718028
 10
12.72937274956093
 20
12.92018249634293
 10
12.73309641221341
 20
13.01743905772095
 10
12.73485347259452
 20
13.11475108210739
 10
12.73464252055377
 20
13.21205891029534
  0
LWPOLYLINE
  5
107
330
1F
100
AcDbEntity
  8
0
  6
CONTINUOUS
 62
     7
100
AcDbPolyline
 90
        5
 70
   128
 43
0.0
 10
5.1862348578879
 20
8.304611142370655
 10
5.872624397059233
 20
8.311450801299566
 10
6.559026246332713
 20
8.317847818668179
 10
7.245445699007342
 20
8.323729127669832
 10
7.931879226937613
 20
8.329009121508553
  0
LWPOLYLINE
  5
108
330
1F
100
AcDbEntity
  8
0
  6
CONTINUOUS
 62
     7
100
AcDbPolyline
 90
       17
 70
   128
 43
0.0
 10
5.024431459012911
 20
8.466414541245644
 10
5.025097655601111
 20
8.447350737415643
 10
5.027580063797558
 20
8.428398547302432
 10
5.032019469662771
 20
8.409868076838927
 10
5.036796673239041
 20
8.396251205975696
 10
5.042842975162128
 20
8.38307437068747
 10
5.050120283751664
 20
8.370548368828551
 10
5.058590507327277
 20
8.358883998253233
 10
5.069912167804604
 20
8.346578216627731
 10
5.082685588955134
 20
8.335688153907192
 10
5.096613916317392
 20
8.3264279139822
 10
5.110404325487259
 20
8.319370498826142
 10
5.124879969073396
 20
8.313732075063096
 10
5.139794988609921
 20
8.309506717691714
 10
5.155112609597086
 20
8.306626393213042
 10
5.170645531087293
 20
8.305021618575853
 10
5.1862348578879
 20
8.304611142370655
  0
LWPOLYLINE
  5
109
330
1F
100
AcDbEntity
  8
0
  6
CONTINUOUS
 62
     7
100
AcDbPolyline
 90
       11
 70
   128
 43
0.0
 10
5.061976915163459
 20
15.92015782319449
 10
5.062950326275829
 20
15.26892410865826
 10
5.062974717121138
 20
14.61768555495707
 10
5.062074700998917
 20
13.96644761550055
 10
5.060274891208711
 20
13.31521574369829
 10
5.057599901050056
 20
12.66399539295989
 10
5.053119573266858
 20
11.84989489425211
 10
5.047541765405415
 20
11.03581220450237
 10
5.04101850236099
 20
10.22174891712366
 10
5.033701809028843
 20
9.407706625528982
 10
5.024431459012911
 20
8.466414541245644
  0
LWPOLYLINE
  5
10A
330
1F
100
AcDbEntity
  8
0
  6
CONTINUOUS
 62
     7
100
AcDbPolyline
 90
       17
 70
   128
 43
0.0
 10
5.225742875949233
 20
16.0799986601587
 10
5.206358531792631
 20
16.07940013606675
 10
5.187080573766086
 20
16.07695275249084
 10
5.168224833131531
 20
16.07251003523279
 10
5.154361011576561
 20
16.06769890234135
 10
5.140942510544674
 20
16.0615884348541
 10
5.12818796828358
 20
16.0542154135455
 10
5.116316023040982
 20
16.04561661918999
 10
5.10388439635361
 20
16.03418634041409
 10
5.092891352770044
 20
16.02128014205641
 10
5.083559254714777
 20
16.00719964444644
 10
5.0765125336545
 20
15.99335409188233
 10
5.070896419395494
 20
15.97882146789463
 10
5.066706562822105
 20
15.96384987002033
 10
5.064012423371546
 20
15.94943289007709
 10
5.062458234650026
 20
15.93482368416478
 10
5.061976915163459
 20
15.92015782319449
  0
LWPOLYLINE
  5
10B
330
1F
100
AcDbEntity
  8
0
  6
CONTINUOUS
 62
     7
100
AcDbPolyline
 90
       15
 70
   128
 43
0.0
 10
12.56428399075249
 20
16.00626707298521
 10
12.33322735856529
 20
16.00423727807266
 10
12.1021606458514
 20
16.00263528467402
 10
11.8710859969838
 20
16.00158647938799
 10
11.63996713344762
 20
16.0012188561896
 10
11.40884646600236
 20
16.00155071085675
 10
11.17773252368057
 20
16.00254252977953
 10
10.78088229470002
 20
16.00540113964638
 10
10.38405530877233
 20
16.00929277665069
 10
9.987247157729605
 20
16.01393277629839
 10
9.590453433403894
 20
16.01903647409541
 10
9.193669727627282
 20
16.02431920554766
 10
8.201771523976653
 20
16.03782225973291
 10
7.209889486266166
 20
16.0517326549102
 10
5.22574287594923
 20
16.07999866015862
  0
CIRCLE
  5
10C
330
1F
100
AcDbEntity
  8
0
  6
CONTINUOUS
 62
     7
100
AcDbCircle
 10
11.6318792269376
 20
14.91205891029534
 30
0.0
 40
0.5999999999999997
  0
ARC
  5
10D
330
1F
100
AcDbEntity
  8
0
  6
CONTINUOUS
 62
     7
100
AcDbCircle
 10
7.931879226937613
 20
13.21205891029534
 30
0.0
 40
4.992272954677407
100
AcDbArc
 50
270.0000000000008
 51
0.0
  0
ELLIPSE
  5
110
330
1F
100
AcDbEntity
  8
0
  6
CONTINUOUS
 62
     7
100
AcDbEllipse
 10
4.516225835096202
 20
16.62771230213675
 30
0.0
 11
0.0707968544599194
 21
-0.0707968544599176
 31
0.0
210
0.0
220
0.0
230
1.0
 40
0.998782765958693
 41
2.356803477777904
 42
3.926381829401634
  0
ELLIPSE
  5
111
330
1F
100
AcDbEntity
  8
0
  6
CONTINUOUS
 62
     7
100
AcDbEllipse
 10
12.67311812480148
 20
15.9532978081592
 30
0.0
 11
0.2030626225458967
 21
0.2087437841940077
 31
0.0
210
0.0
220
0.0
230
1.0
 40
0.6866956083138362
 41
6.263098016707181
 42
6.872114935467927
  0
LINE
  5
112
330
1F
100
AcDbEntity
  8
0
  6
CONTINUOUS
 62
     7
100
AcDbLine
 10
12.76234878274003
 20
16.20433186497274
 30
0.0
 11
5.101409671135187
 21
16.20433186497274
 31
0.0
  0
ELLIPSE
  5
113
330
1F
100
AcDbEntity
  8
0
  6
CONTINUOUS
 62
     7
100
AcDbEllipse
 10
5.190640329073735
 20
15.9532978081592
 30
0.0
 11
-0.203062622545894
 21
0.2087437841940076
 31
0.0
210
0.0
220
0.0
230
1.0
 40
0.6866956083138468
 41
5.694255678891281
 42
6.303272597652039
  0
ELLIPSE
  5
118
330
1F
100
AcDbEntity
  8
0
  6
CONTINUOUS
 62
     7
100
AcDbEllipse
 10
4.516225835096203
 20
7.796405518453941
 30
0.0
 11
0.0707968544599194
 21
0.0707968544599211
 31
0.0
210
0.0
220
0.0
230
1.0
 40
0.998782765958693
 41
2.356803477777904
 42
3.926381829401679
  0
ELLIPSE
  5
119
330
1F
100
AcDbEntity
  8
0
  6
CONTINUOUS
 62
     7
100
AcDbEllipse
 10
5.190640329073734
 20
8.470820012431479
 30
0.0
 11
0.2030626225458949
 21
0.2087437841940059
 31
0.0
210
0.0
220
0.0
230
1.0
 40
0.6866956083138463
 41
3.121505363117349
 42
3.730522281878133
  0
LINE
  5
11A
330
1F
100
AcDbEntity
  8
0
  6
CONTINUOUS
 62
     7
100
AcDbLine
 10
5.101409671135185
 20
8.219785955617942
 30
0.0
 11
7.931879226937613
 21
8.219785955617938
 31
0.0
  0
ELLIPSE
  5
11C
330
1F
100
AcDbEntity
  8
0
  6
CONTINUOUS
 62
     7
100
AcDbEllipse
 10
5.190640329073735
 20
15.9532978081592
 30
0.0
 11
0.2087437841940068
 21
-0.2030626225458932
 31
0.0
210
0.0
220
0.0
230
1.0
 40
0.6866956083138413
 41
3.121505363117283
 42
3.730522281878128
  0
LINE
  5
11D
330
1F
100
AcDbEntity
  8
0
  6
CONTINUOUS
 62
     7
100
AcDbLine
 10
4.939606272260197
 20
16.04252846609775
 30
0.0
 11
4.939606272260197
 21
8.381589354492929
 31
0.0
  0
ELLIPSE
  5
11E
330
1F
100
AcDbEntity
  8
0
  6
CONTINUOUS
 62
     7
100
AcDbEllipse
 10
5.190640329073734
 20
8.470820012431479
 30
0.0
 11
0.2087437841940068
 21
0.2030626225458932
 31
0.0
210
0.0
220
0.0
230
1.0
 40
0.6866956083138478
 41
2.552663025301488
 42
3.161679944062303
  0
LINE
  5
121
330
1F
100
AcDbEntity
  8
0
  6
CONTINUOUS
 62
     7
100
AcDbLine
 10
13.44759357320889
 20
13.21205891029535
 30
0.0
 11
13.44759357320889
 21
16.62783417386472
 31
0.0
  0
LINE
  5
122
330
1F
100
AcDbEntity
  8
0
  6
CONTINUOUS
 62
     7
100
AcDbLine
 10
13.34765449050698
 20
16.72777325656663
 30
0.0
 11
4.516103963368232
 21
16.72777325656663
 31
0.0
  0
LINE
  5
123
330
1F
100
AcDbEntity
  8
0
  6
CONTINUOUS
 62
     7
100
AcDbLine
 10
4.416164880666321
 20
16.62783417386472
 30
0.0
 11
4.416164880666321
 21
7.796283646725971
 31
0.0
  0
LINE
  5
125
330
1F
100
AcDbEntity
  8
0
  6
CONTINUOUS
 62
     7
100
AcDbLine
 10
4.516103963368234
 20
7.69634456402406
 30
0.0
 11
7.931879226937613
 21
7.69634456402406
 31
0.0
  0
ELLIPSE
  5
127
330
1F
100
AcDbEntity
  8
0
  6
CONTINUOUS
 62
     7
100
AcDbEllipse
 10
13.34753261877901
 20
16.62771230213675
 30
0.0
 11
0.0707968544599194
 21
0.0707968544599176
 31
0.0
210
0.0
220
0.0
230
1.0
 40
0.9987827659586868
 41
5.498396131367769
 42
7.067974482991491
  0
ARC
  5
128
330
1F
100
AcDbEntity
  8
0
  6
CONTINUOUS
 62
     7
100
AcDbCircle
 10
7.931879226937613
 20
13.21205891029534
 30
0.0
 40
5.515714346271285
100
AcDbArc
 50
270.0000000000008
 51
0.0
  0
LINE
  5
129
330
1F
100
AcDbEntity
  8
0
  6
CONTINUOUS
 62
     7
100
AcDbLine
 10
12.92415218161502
 20
13.21205891029534
 30
0.0
 11
12.92415218161502
 21
16.04252846609775
 31
0.0
  0
ELLIPSE
  5
12A
330
1F
100
AcDbEntity
  8
0
  6
CONTINUOUS
 62
     7
100
AcDbEllipse
 10
12.67311812480148
 20
15.9532978081592
 30
0.0
 11
0.2087437841940059
 21
0.2030626225458949
 31
0.0
210
0.0
220
0.0
230
1.0
 40
0.6866956083138378
 41
5.694255678891277
 42
6.303272597652119
  0
CIRCLE
  5
12B
330
1F
100
AcDbEntity
  8
0
  6
CONTINUOUS
 62
     7
100
AcDbCircle
 10
11.6318792269376
 20
14.91205891029534
 30
0.0
 40
0.4499999999626639
  0
ENDSEC
  0
SECTION
  2
OBJECTS
  0
DICTIONARY
  5
C
330
0
100
AcDbDictionary
  3
ACAD_GROUP
350
D
  3
ACAD_LAYOUT
350
1A
  3
ACAD_MLINESTYLE
350
17
  3
ACAD_PLOTSETTINGS
350
19
  3
ACAD_PLOTSTYLENAME
350
E
  3
ACDBHEADERROUNDTRIPXREC
350
19A
  3
ACDBVARIABLEDICTIONARY
350
194
  0
DICTIONARY
  5
15C
330
1F
100
AcDbDictionary
280
     1
  3
ACAD_LAYOUTSELFREF
360
1BC
  0
DICTIONARY
  5
15E
330
1B
100
AcDbDictionary
280
     1
  3
ACAD_LAYOUTSELFREF
360
1BB
  0
DICTIONARY
  5
D
102
{ACAD_REACTORS
330
C
102
}
330
C
100
AcDbDictionary
  0
DICTIONARY
  5
1A
102
{ACAD_REACTORS
330
C
102
}
330
C
100
AcDbDictionary
  0
DICTIONARY
  5
17
102
{ACAD_REACTORS
330
C
102
}
330
C
100
AcDbDictionary
  3
STANDARD
350
18
  0
DICTIONARY
  5
19
102
{ACAD_REACTORS
330
C
102
}
330
C
100
AcDbDictionary
  0
ACDBDICTIONARYWDFLT
  5
E
102
{ACAD_REACTORS
330
C
102
}
330
C
100
AcDbDictionary
281
     1
  3
Normal
350
F
100
AcDbDictionaryWithDefault
340
F
  0
DICTIONARY
  5
19A
102
{ACAD_REACTORS
330
C
102
}
330
C
100
AcDbDictionary
  3
CEPSNTYPE
350
1A4
  3
DIMSTYLEDATA
350
1A8
  3
FINGERPRINTGUID
350
1A5
  3
HYPERLINKBASE
350
19D
  3
INSUNITS
350
1A3
  3
LAYOUTDICT
350
19F
  3
LWETCUNION
350
1A2
  3
PLOTSETDICT
350
1A0
  3
PLOTSTYLNAMDICT
350
1A1
  3
PSVPSCALE
350
1A7
  3
PUCSBASE
350
1AB
  3
PUCSORGBACK
350
1B1
  3
PUCSORGBOTTOM
350
1AD
  3
PUCSORGFRONT
350
1B0
  3
PUCSORGLEFT
350
1AE
  3
PUCSORGRIGHT
350
1AF
  3
PUCSORGTOP
350
1AC
  3
PUCSORTHOREF
350
1A9
  3
PUCSORTHOVIEW
350
1AA
  3
STYLESHEET
350
19E
  3
TSTACKALIGN
350
19B
  3
TSTACKSIZE
350
19C
  3
UCSBASE
350
1B4
  3
UCSORGBACK
350
1BA
  3
UCSORGBOTTOM
350
1B6
  3
UCSORGFRONT
350
1B9
  3
UCSORGLEFT
350
1B7
  3
UCSORGRIGHT
350
1B8
  3
UCSORGTOP
350
1B5
  3
UCSORTHOREF
350
1B2
  3
UCSORTHOVIEW
350
1B3
  3
VERSIONGUID
350
1A6
  0
DICTIONARY
  5
194
102
{ACAD_REACTORS
330
C
102
}
330
C
100
AcDbDictionary
  3
DIMASSOC
350
195
  0
XRECORD
  5
1BC
102
{ACAD_REACTORS
330
15C
102
}
330
15C
100
AcDbXrecord
340
1F
  0
XRECORD
  5
1BB
102
{ACAD_REACTORS
330
15E
102
}
330
15E
100
AcDbXrecord
340
1B
  0
MLINESTYLE
  5
18
102
{ACAD_REACTORS
330
17
102
}
330
17
100
AcDbMlineStyle
  2
STANDARD
 70
     0
  3

 62
   256
 51
90.0
 52
90.0
 71
     2
 49
0.5
 62
   256
  6
BYLAYER
 49
-0.5
 62
   256
  6
BYLAYER
  0
ACDBPLACEHOLDER
  5
F
102
{ACAD_REACTORS
330
E
102
}
330
E
100
AcDbPlaceHolder
280
     0
  0
XRECORD
  5
1A4
102
{ACAD_REACTORS
330
19A
102
}
330
19A
100
AcDbXrecord
 90
        0
  0
XRECORD
  5
1A8
102
{ACAD_REACTORS
330
19A
102
}
330
19A
100
AcDbXrecord
1000
DSTYLE
1002
{
1070
   278
 70
    44
1002
}
  0
XRECORD
  5
1A5
102
{ACAD_REACTORS
330
19A
102
}
330
19A
100
AcDbXrecord
  1
{37787CA0-2E6A-43EF-AACE-1E27025092A6}
  0
XRECORD
  5
19D
102
{ACAD_REACTORS
330
19A
102
}
330
19A
100
AcDbXrecord
  1

  0
XRECORD
  5
1A3
102
{ACAD_REACTORS
330
19A
102
}
330
19A
100
AcDbXrecord
 90
        4
  0
XRECORD
  5
19F
102
{ACAD_REACTORS
330
19A
102
}
330
19A
100
AcDbXrecord
340
1A
  0
XRECORD
  5
1A2
102
{ACAD_REACTORS
330
19A
102
}
330
19A
100
AcDbXrecord
 90
    10269
  0
XRECORD
  5
1A0
102
{ACAD_REACTORS
330
19A
102
}
330
19A
100
AcDbXrecord
340
19
  0
XRECORD
  5
1A1
102
{ACAD_REACTORS
330
19A
102
}
330
19A
100
AcDbXrecord
340
E
  0
XRECORD
  5
1A7
102
{ACAD_REACTORS
330
19A
102
}
330
19A
100
AcDbXrecord
 40
0.0
  0
XRECORD
  5
1AB
102
{ACAD_REACTORS
330
19A
102
}
330
19A
100
AcDbXrecord
340
0
  0
XRECORD
  5
1B1
102
{ACAD_REACTORS
330
19A
102
}
330
19A
100
AcDbXrecord
 10
0.0
 20
0.0
 30
0.0
  0
XRECORD
  5
1AD
102
{ACAD_REACTORS
330
19A
102
}
330
19A
100
AcDbXrecord
 10
0.0
 20
0.0
 30
0.0
  0
XRECORD
  5
1B0
102
{ACAD_REACTORS
330
19A
102
}
330
19A
100
AcDbXrecord
 10
0.0
 20
0.0
 30
0.0
  0
XRECORD
  5
1AE
102
{ACAD_REACTORS
330
19A
102
}
330
19A
100
AcDbXrecord
 10
0.0
 20
0.0
 30
0.0
  0
XRECORD
  5
1AF
102
{ACAD_REACTORS
330
19A
102
}
330
19A
100
AcDbXrecord
 10
0.0
 20
0.0
 30
0.0
  0
XRECORD
  5
1AC
102
{ACAD_REACTORS
330
19A
102
}
330
19A
100
AcDbXrecord
 10
0.0
 20
0.0
 30
0.0
  0
XRECORD
  5
1A9
102
{ACAD_REACTORS
330
19A
102
}
330
19A
100
AcDbXrecord
340
0
  0
XRECORD
  5
1AA
102
{ACAD_REACTORS
330
19A
102
}
330
19A
100
AcDbXrecord
 70
     0
  0
XRECORD
  5
19E
102
{ACAD_REACTORS
330
19A
102
}
330
19A
100
AcDbXrecord
  1

  0
XRECORD
  5
19B
102
{ACAD_REACTORS
330
19A
102
}
330
19A
100
AcDbXrecord
 90
        1
  0
XRECORD
  5
19C
102
{ACAD_REACTORS
330
19A
102
}
330
19A
100
AcDbXrecord
 90
       70
  0
XRECORD
  5
1B4
102
{ACAD_REACTORS
330
19A
102
}
330
19A
100
AcDbXrecord
340
0
  0
XRECORD
  5
1BA
102
{ACAD_REACTORS
330
19A
102
}
330
19A
100
AcDbXrecord
 10
0.0
 20
0.0
 30
0.0
  0
XRECORD
  5
1B6
102
{ACAD_REACTORS
330
19A
102
}
330
19A
100
AcDbXrecord
 10
0.0
 20
0.0
 30
0.0
  0
XRECORD
  5
1B9
102
{ACAD_REACTORS
330
19A
102
}
330
19A
100
AcDbXrecord
 10
0.0
 20
0.0
 30
0.0
  0
XRECORD
  5
1B7
102
{ACAD_REACTORS
330
19A
102
}
330
19A
100
AcDbXrecord
 10
0.0
 20
0.0
 30
0.0
  0
XRECORD
  5
1B8
102
{ACAD_REACTORS
330
19A
102
}
330
19A
100
AcDbXrecord
 10
0.0
 20
0.0
 30
0.0
  0
XRECORD
  5
1B5
102
{ACAD_REACTORS
330
19A
102
}
330
19A
100
AcDbXrecord
 10
0.0
 20
0.0
 30
0.0
  0
XRECORD
  5
1B2
102
{ACAD_REACTORS
330
19A
102
}
330
19A
100
AcDbXrecord
340
0
  0
XRECORD
  5
1B3
102
{ACAD_REACTORS
330
19A
102
}
330
19A
100
AcDbXrecord
 70
     0
  0
XRECORD
  5
1A6
102
{ACAD_REACTORS
330
19A
102
}
330
19A
100
AcDbXrecord
  1
{8DDD5ACB-9D12-4576-8C49-7E208E7A05C8}
  0
DICTIONARYVAR
  5
195
102
{ACAD_REACTORS
330
194
102
}
330
194
100
DictionaryVariables
280
     0
  1
1
  0
ENDSEC
  0
EOF
