  0
SECTION
  2
HEADER
  9
$ACADVER
  1
AC1014
  9
$ACADMAINTVER
 70
     9
  9
$DWGCODEPAGE
  3
ANSI_1250
  9
$INSBASE
 10
0.0
 20
0.0
 30
0.0
  9
$EXTMIN
 10
3.642709423977315
 20
9.114120542903108
 30
-0.0015258207003583
  9
$EXTMAX
 10
13.68531194015559
 20
17.15702824266282
 30
0.0000000349246037
  9
$LIMMIN
 10
0.0
 20
0.0
  9
$LIMMAX
 10
0.0
 20
0.0
  9
$ORTHOMODE
 70
     0
  9
$REGENMODE
 70
     1
  9
$FILLMODE
 70
     1
  9
$QTEXTMODE
 70
     0
  9
$MIRRTEXT
 70
     1
  9
$DRAGMODE
 70
     2
  9
$LTSCALE
 40
1.0
  9
$OSMODE
 70
  1007
  9
$ATTMODE
 70
     1
  9
$TEXTSIZE
 40
2.5
  9
$TRACEWID
 40
1.0
  9
$TEXTSTYLE
  7
STANDARD
  9
$CLAYER
  8
0
  9
$CELTYPE
  6
BYLAYER
  9
$CECOLOR
 62
   256
  9
$CELTSCALE
 40
1.0
  9
$DELOBJ
 70
     1
  9
$DISPSILH
 70
     0
  9
$DIMSCALE
 40
1.0
  9
$DIMASZ
 40
0.3
  9
$DIMEXO
 40
0.01
  9
$DIMDLI
 40
3.75
  9
$DIMRND
 40
0.0
  9
$DIMDLE
 40
0.0
  9
$DIMEXE
 40
0.1
  9
$DIMTP
 40
0.0
  9
$DIMTM
 40
0.0
  9
$DIMTXT
 40
0.2822222222222222
  9
$DIMCEN
 40
2.5
  9
$DIMTSZ
 40
0.0
  9
$DIMTOL
 70
     0
  9
$DIMLIM
 70
     0
  9
$DIMTIH
 70
     1
  9
$DIMTOH
 70
     1
  9
$DIMSE1
 70
     0
  9
$DIMSE2
 70
     0
  9
$DIMTAD
 70
     1
  9
$DIMZIN
 70
     0
  9
$DIMBLK
  1

  9
$DIMASO
 70
     1
  9
$DIMSHO
 70
     1
  9
$DIMPOST
  1

  9
$DIMAPOST
  1

  9
$DIMALT
 70
     0
  9
$DIMALTD
 70
     3
  9
$DIMALTF
 40
0.3937007874015748
  9
$DIMLFAC
 40
10.0
  9
$DIMTOFL
 70
     1
  9
$DIMTVP
 40
0.0
  9
$DIMTIX
 70
     0
  9
$DIMSOXD
 70
     0
  9
$DIMSAH
 70
     0
  9
$DIMBLK1
  1

  9
$DIMBLK2
  1

  9
$DIMSTYLE
  2
ISO-25
  9
$DIMCLRD
 70
     0
  9
$DIMCLRE
 70
     0
  9
$DIMCLRT
 70
     0
  9
$DIMTFAC
 40
1.0
  9
$DIMGAP
 40
0.1524
  9
$DIMJUST
 70
     0
  9
$DIMSD1
 70
     0
  9
$DIMSD2
 70
     0
  9
$DIMTOLJ
 70
     0
  9
$DIMTZIN
 70
     0
  9
$DIMALTZ
 70
     0
  9
$DIMALTTZ
 70
     0
  9
$DIMFIT
 70
     3
  9
$DIMUPT
 70
     0
  9
$DIMUNIT
 70
     2
  9
$DIMDEC
 70
     2
  9
$DIMTDEC
 70
     2
  9
$DIMALTU
 70
     2
  9
$DIMALTTD
 70
     3
  9
$DIMTXSTY
  7
STANDARD
  9
$DIMAUNIT
 70
     0
  9
$LUNITS
 70
     2
  9
$LUPREC
 70
     2
  9
$SKETCHINC
 40
1.0
  9
$FILLETRAD
 40
10.0
  9
$AUNITS
 70
     0
  9
$AUPREC
 70
     0
  9
$MENU
  1
.
  9
$ELEVATION
 40
0.0
  9
$PELEVATION
 40
0.0
  9
$THICKNESS
 40
0.0
  9
$LIMCHECK
 70
     0
  9
$BLIPMODE
 70
     0
  9
$CHAMFERA
 40
10.0
  9
$CHAMFERB
 40
10.0
  9
$CHAMFERC
 40
20.0
  9
$CHAMFERD
 40
0.0
  9
$SKPOLY
 70
     0
  9
$TDCREATE
 40
2454418.390598229
  9
$TDUPDATE
 40
2454420.427635995
  9
$TDINDWG
 40
0.0006687731
  9
$TDUSRTIMER
 40
0.0006687731
  9
$USRTIMER
 70
     1
  9
$ANGBASE
 50
0.0
  9
$ANGDIR
 70
     0
  9
$PDMODE
 70
     0
  9
$PDSIZE
 40
-1.0
  9
$PLINEWID
 40
0.0
  9
$COORDS
 70
     1
  9
$SPLFRAME
 70
     0
  9
$SPLINETYPE
 70
     6
  9
$SPLINESEGS
 70
     8
  9
$ATTDIA
 70
     0
  9
$ATTREQ
 70
     1
  9
$HANDLING
 70
 22529
  9
$HANDSEED
  5
261
  9
$SURFTAB1
 70
     6
  9
$SURFTAB2
 70
     6
  9
$SURFTYPE
 70
     6
  9
$SURFU
 70
     6
  9
$SURFV
 70
     6
  9
$UCSNAME
  2

  9
$UCSORG
 10
0.0
 20
0.0
 30
0.0
  9
$UCSXDIR
 10
1.0
 20
0.0
 30
0.0
  9
$UCSYDIR
 10
0.0
 20
1.0
 30
0.0
  9
$PUCSNAME
  2

  9
$PUCSORG
 10
0.0
 20
0.0
 30
0.0
  9
$PUCSXDIR
 10
1.0
 20
0.0
 30
0.0
  9
$PUCSYDIR
 10
0.0
 20
1.0
 30
0.0
  9
$USERI1
 70
     0
  9
$USERI2
 70
     0
  9
$USERI3
 70
     0
  9
$USERI4
 70
     0
  9
$USERI5
 70
     0
  9
$USERR1
 40
0.0
  9
$USERR2
 40
0.0
  9
$USERR3
 40
0.0
  9
$USERR4
 40
0.0
  9
$USERR5
 40
0.0
  9
$WORLDVIEW
 70
     1
  9
$SHADEDGE
 70
     3
  9
$SHADEDIF
 70
    70
  9
$TILEMODE
 70
     1
  9
$MAXACTVP
 70
    64
  9
$PINSBASE
 10
0.0
 20
0.0
 30
0.0
  9
$PLIMCHECK
 70
     0
  9
$PEXTMIN
 10
1.000000000000000E+20
 20
1.000000000000000E+20
 30
1.000000000000000E+20
  9
$PEXTMAX
 10
-1.000000000000000E+20
 20
-1.000000000000000E+20
 30
-1.000000000000000E+20
  9
$PLIMMIN
 10
0.0
 20
0.0
  9
$PLIMMAX
 10
420.0
 20
297.0
  9
$UNITMODE
 70
     0
  9
$VISRETAIN
 70
     1
  9
$PLINEGEN
 70
     0
  9
$PSLTSCALE
 70
     1
  9
$TREEDEPTH
 70
  3020
  9
$PICKSTYLE
 70
     1
  9
$CMLSTYLE
  2
STANDARD
  9
$CMLJUST
 70
     0
  9
$CMLSCALE
 40
20.0
  9
$PROXYGRAPHICS
 70
     1
  9
$MEASUREMENT
 70
     1
  0
ENDSEC
  0
SECTION
  2
CLASSES
  0
CLASS
  1
ACDBDICTIONARYWDFLT
  2
AcDbDictionaryWithDefault
  3
AutoCAD 2000
 90
        0
280
     0
281
     0
  0
CLASS
  1
ACDBPLACEHOLDER
  2
AcDbPlaceHolder
  3
AutoCAD 2000
 90
        0
280
     0
281
     0
  0
CLASS
  1
LAYOUT
  2
AcDbLayout
  3
AutoCAD 2000
 90
        0
280
     0
281
     0
  0
CLASS
  1
DICTIONARYVAR
  2
AcDbDictionaryVar
  3
AutoCAD 2000
 90
        0
280
     0
281
     0
  0
CLASS
  1
LONG_TRANSACTION
  2
AcDbLongTransaction
  3
AutoCAD 2000
 90
        0
280
     0
281
     0
  0
CLASS
  1
LWPOLYLINE
  2
AcDbPolyline
  3
AutoCAD 2000
 90
        0
280
     0
281
     1
  0
CLASS
  1
HATCH
  2
AcDbHatch
  3
AutoCAD 2000
 90
        0
280
     0
281
     1
  0
CLASS
  1
XRECORD
  2
AcDbXrecord
  3
AutoCAD 2000
 90
        0
280
     0
281
     0
  0
ENDSEC
  0
SECTION
  2
TABLES
  0
TABLE
  2
VPORT
  5
8
330
0
100
AcDbSymbolTable
 70
     3
  0
VPORT
  5
239
330
8
100
AcDbSymbolTableRecord
100
AcDbViewportTableRecord
  2
*ACTIVE
 70
     0
 10
0.0
 20
0.0
 11
1.0
 21
1.0
 12
8.664010682066454
 22
13.13557439278296
 13
0.0
 23
0.0
 14
10.0
 24
10.0
 15
10.0
 25
10.0
 16
0.0
 26
0.0
 36
1.0
 17
0.0
 27
0.0
 37
0.0
 40
8.122148169708081
 41
1.981907894736842
 42
50.0
 43
0.0
 44
0.0
 50
0.0
 51
0.0
 71
     0
 72
  2000
 73
     1
 74
     3
 75
     0
 76
     0
 77
     0
 78
     0
  0
ENDTAB
  0
TABLE
  2
LTYPE
  5
5
330
0
100
AcDbSymbolTable
 70
     6
  0
LTYPE
  5
14
330
5
100
AcDbSymbolTableRecord
100
AcDbLinetypeTableRecord
  2
BYBLOCK
 70
     0
  3

 72
    65
 73
     0
 40
0.0
  0
LTYPE
  5
15
330
5
100
AcDbSymbolTableRecord
100
AcDbLinetypeTableRecord
  2
BYLAYER
 70
     0
  3

 72
    65
 73
     0
 40
0.0
  0
LTYPE
  5
16
330
5
100
AcDbSymbolTableRecord
100
AcDbLinetypeTableRecord
  2
CONTINUOUS
 70
     0
  3
Solid line
 72
    65
 73
     0
 40
0.0
  0
ENDTAB
  0
TABLE
  2
LAYER
  5
2
330
0
100
AcDbSymbolTable
 70
    16
  0
LAYER
  5
10
330
2
100
AcDbSymbolTableRecord
100
AcDbLayerTableRecord
  2
0
 70
     0
 62
     7
  6
CONTINUOUS
  0
ENDTAB
  0
TABLE
  2
STYLE
  5
3
330
0
100
AcDbSymbolTable
 70
     4
  0
STYLE
  5
11
330
3
100
AcDbSymbolTableRecord
100
AcDbTextStyleTableRecord
  2
STANDARD
 70
     0
 40
0.0
 41
1.0
 50
0.0
 71
     0
 42
2.5
  3
ARIAL.TTF
  4

1001
ACAD
1000
Arial
1071
       34
  0
ENDTAB
  0
TABLE
  2
VIEW
  5
6
330
0
100
AcDbSymbolTable
 70
     0
  0
ENDTAB
  0
TABLE
  2
UCS
  5
7
330
0
100
AcDbSymbolTable
 70
     0
  0
ENDTAB
  0
TABLE
  2
APPID
  5
9
330
0
100
AcDbSymbolTable
 70
     1
  0
APPID
  5
12
330
9
100
AcDbSymbolTableRecord
100
AcDbRegAppTableRecord
  2
ACAD
 70
     0
  0
ENDTAB
  0
TABLE
  2
DIMSTYLE
  5
A
330
0
100
AcDbSymbolTable
 70
     3
  0
DIMSTYLE
105
27
330
A
100
AcDbSymbolTableRecord
100
AcDbDimStyleTableRecord
  2
ISO-25
 70
     0
  3

  4

  5

  6

  7

 40
1.0
 41
2.5
 42
0.625
 43
3.75
 44
1.25
 45
0.0
 46
0.0
 47
0.0
 48
0.0
140
2.5
141
2.5
142
0.0
143
0.03937007874016
144
1.0
145
0.0
146
1.0
147
0.625
 71
     0
 72
     0
 73
     0
 74
     0
 75
     0
 76
     0
 77
     1
 78
     8
170
     0
171
     3
172
     1
173
     0
174
     0
175
     0
176
     0
177
     0
178
     0
270
     2
271
     2
272
     2
273
     2
274
     3
340
11
275
     0
280
     0
281
     0
282
     0
283
     0
284
     8
285
     0
286
     0
287
     3
288
     0
  0
ENDTAB
  0
TABLE
  2
BLOCK_RECORD
  5
1
330
0
100
AcDbSymbolTable
 70
    18
  0
BLOCK_RECORD
  5
1F
102
{ACAD_XDICTIONARY
360
25D
102
}
330
1
100
AcDbSymbolTableRecord
100
AcDbBlockTableRecord
  2
*MODEL_SPACE
  0
BLOCK_RECORD
  5
1B
102
{ACAD_XDICTIONARY
360
25B
102
}
330
1
100
AcDbSymbolTableRecord
100
AcDbBlockTableRecord
  2
*PAPER_SPACE
  0
ENDTAB
  0
ENDSEC
  0
SECTION
  2
BLOCKS
  0
BLOCK
  5
20
330
1F
100
AcDbEntity
  8
0
100
AcDbBlockBegin
  2
*MODEL_SPACE
 70
     0
 10
0.0
 20
0.0
 30
0.0
  3
*MODEL_SPACE
  1

  0
ENDBLK
  5
21
330
1F
100
AcDbEntity
  8
0
100
AcDbBlockEnd
  0
BLOCK
  5
1C
330
1B
100
AcDbEntity
 67
     1
  8
0
100
AcDbBlockBegin
  2
*PAPER_SPACE
 70
     0
 10
0.0
 20
0.0
 30
0.0
  3
*PAPER_SPACE
  1

  0
ENDBLK
  5
1D
330
1B
100
AcDbEntity
 67
     1
  8
0
100
AcDbBlockEnd
  0
ENDSEC
  0
SECTION
  2
ENTITIES
  0
ARC
  5
AA
330
1F
100
AcDbEntity
  8
0
100
AcDbCircle
 10
13.54782818946416
 20
17.02014419529411
 30
0.0
 40
0.1000426458664791
100
AcDbArc
 50
359.9925961383453
 51
44.9527749319424
  0
ARC
  5
AB
330
1F
100
AcDbEntity
  8
0
100
AcDbCircle
 10
13.54794394919396
 20
17.02002602652488
 30
0.0
 40
0.1000443497236933
100
AcDbArc
 50
45.04750807352169
 51
90.00699992578763
  0
ARC
  5
AC
330
1F
100
AcDbEntity
  8
0
100
AcDbCircle
 10
13.56365603125157
 20
17.03585557225815
 30
0.0
 40
0.0999182451348282
100
AcDbArc
 50
359.9880354891396
 51
90.01196451086018
  0
ARC
  5
AD
330
1F
100
AcDbEntity
  8
0
100
AcDbCircle
 10
13.00010116032542
 20
16.46961247919569
 30
0.0
 40
0.1588959009685082
100
AcDbArc
 50
45.685441591211
 51
92.05499336305804
  0
LINE
  5
AE
330
1F
100
AcDbEntity
  8
0
100
AcDbLine
 10
4.33274519028837
 20
16.62840618938191
 30
0.0
 11
12.99440335812742
 21
16.62840618938191
 31
0.0
  0
ARC
  5
AF
330
1F
100
AcDbEntity
  8
0
100
AcDbCircle
 10
4.327290969169953
 20
16.46898219973766
 30
0.0
 40
0.1595172623953302
100
AcDbArc
 50
88.04055831239269
 51
134.2190067333384
  0
ARC
  5
B0
330
1F
100
AcDbEntity
  8
0
100
AcDbCircle
 10
3.779204599221817
 20
17.02002602652489
 30
0.0
 40
0.1000443497236782
100
AcDbArc
 50
89.99300007420831
 51
134.9524919264811
  0
LINE
  5
B1
330
1F
100
AcDbEntity
  8
0
100
AcDbLine
 10
13.54793172660047
 20
17.12007037550194
 30
0.0
 11
3.779216821815317
 21
17.12007037550194
 31
0.0
  0
LINE
  5
B2
330
1F
100
AcDbEntity
  8
0
100
AcDbLine
 10
3.763513382102792
 20
17.13577381521447
 30
0.0
 11
13.56363516631299
 21
17.13577381521447
 31
0.0
  0
ARC
  5
B3
330
1F
100
AcDbEntity
  8
0
100
AcDbCircle
 10
3.779320358951631
 20
17.02014419529411
 30
0.0
 40
0.1000426458664835
100
AcDbArc
 50
135.0472250680572
 51
180.0074038616542
  0
ARC
  5
B4
330
1F
100
AcDbEntity
  8
0
100
AcDbCircle
 10
3.763492517164215
 20
17.03585557225815
 30
0.0
 40
0.0999182451348295
100
AcDbArc
 50
89.98803548914059
 51
180.0119645108619
  0
ARC
  5
B5
330
1F
100
AcDbEntity
  8
0
100
AcDbCircle
 10
13.5478276449744
 20
9.251403392118307
 30
0.0
 40
0.1000431903085788
100
AcDbArc
 50
315.0473541112841
 51
0.0071895039593719
  0
ARC
  5
B6
330
1F
100
AcDbEntity
  8
0
100
AcDbCircle
 10
12.99741142651479
 20
9.79924721200239
 30
0.0
 40
0.1588974717098619
100
AcDbArc
 50
315.6856417481105
 51
2.054827951046046
  0
LINE
  5
B7
330
1F
100
AcDbEntity
  8
0
100
AcDbLine
 10
13.15620672288114
 20
16.46660275012238
 30
0.0
 11
13.15620672288114
 21
9.804944612085659
 31
0.0
  0
ARC
  5
B8
330
1F
100
AcDbEntity
  8
0
100
AcDbCircle
 10
12.99678353348359
 20
16.47205734956902
 30
0.0
 40
0.159516475552877
100
AcDbArc
 50
358.0404126743545
 51
44.21916682472357
  0
LINE
  5
B9
330
1F
100
AcDbEntity
  8
0
100
AcDbLine
 10
13.64787083449537
 20
9.251415945589384
 30
0.0
 11
13.64787083449537
 21
17.02013126760705
 31
0.0
  0
ARC
  5
BA
330
1F
100
AcDbEntity
  8
0
100
AcDbCircle
 10
4.329734710994194
 20
16.47230094020064
 30
0.0
 40
0.1588950906816723
100
AcDbArc
 50
135.6852766986476
 51
182.0551438022753
  0
LINE
  5
BB
330
1F
100
AcDbEntity
  8
0
100
AcDbLine
 10
4.170941825534646
 20
9.804944612085659
 30
0.0
 11
4.170941825534646
 21
16.46660275012238
 31
0.0
  0
ARC
  5
BC
330
1F
100
AcDbEntity
  8
0
100
AcDbCircle
 10
4.330367365396299
 20
9.799490778963996
 30
0.0
 40
0.1595187984404925
100
AcDbArc
 50
178.0407166294471
 51
224.2188136713977
  0
ARC
  5
BD
330
1F
100
AcDbEntity
  8
0
100
AcDbCircle
 10
3.779320903441391
 20
9.251403392118307
 30
0.0
 40
0.1000431903085801
100
AcDbArc
 50
179.9928104960406
 51
224.9526458887169
  0
LINE
  5
BE
330
1F
100
AcDbEntity
  8
0
100
AcDbLine
 10
3.679277713920419
 20
17.02013126760705
 30
0.0
 11
3.679277713920419
 21
9.251415945589384
 31
0.0
  0
LINE
  5
BF
330
1F
100
AcDbEntity
  8
0
100
AcDbLine
 10
13.66357427420789
 20
17.03583470731957
 30
0.0
 11
13.66357427420789
 21
9.235713101923307
 31
0.0
  0
LINE
  5
C0
330
1F
100
AcDbEntity
  8
0
100
AcDbLine
 10
3.663574274207895
 20
9.235713101923307
 30
0.0
 11
3.663574274207895
 21
17.03583470731957
 31
0.0
  0
ARC
  5
C1
330
1F
100
AcDbEntity
  8
0
100
AcDbCircle
 10
4.327048091836785
 20
9.80193734196159
 30
0.0
 40
0.1588982586449489
100
AcDbArc
 50
225.6859169720512
 51
272.0547089374598
  0
LINE
  5
C2
330
1F
100
AcDbEntity
  8
0
100
AcDbLine
 10
12.99440335812742
 20
9.643141247331936
 30
0.0
 11
4.33274519028837
 21
9.643141247331936
 31
0.0
  0
ARC
  5
C3
330
1F
100
AcDbEntity
  8
0
100
AcDbCircle
 10
12.99985688933741
 20
9.802567588736499
 30
0.0
 40
0.1595195891929981
100
AcDbArc
 50
268.0408348487555
 51
314.2185392417372
  0
ARC
  5
C4
330
1F
100
AcDbEntity
  8
0
100
AcDbCircle
 10
13.54794480407101
 20
9.251520798368437
 30
0.0
 40
0.100043365482235
100
AcDbArc
 50
269.9925104091905
 51
314.9523628568687
  0
LINE
  5
C5
330
1F
100
AcDbEntity
  8
0
100
AcDbLine
 10
3.779216821815317
 20
9.151477433740932
 30
0.0
 11
13.54793172660047
 21
9.151477433740932
 31
0.0
  0
ARC
  5
C6
330
1F
100
AcDbEntity
  8
0
100
AcDbCircle
 10
3.779203744344774
 20
9.251520798368426
 30
0.0
 40
0.1000433654822244
100
AcDbArc
 50
225.0476371431298
 51
270.0074895908128
  0
ARC
  5
C7
330
1F
100
AcDbEntity
  8
0
100
AcDbCircle
 10
13.56365618085909
 20
9.235692087377209
 30
0.0
 40
0.0999180955586653
100
AcDbArc
 50
269.9879496821675
 51
0.0120503178322104
  0
ARC
  5
C8
330
1F
100
AcDbEntity
  8
0
100
AcDbCircle
 10
3.763492367556692
 20
9.235692087377207
 30
0.0
 40
0.0999180955586635
100
AcDbArc
 50
179.9879496821667
 51
270.0120503178345
  0
LINE
  5
C9
330
1F
100
AcDbEntity
  8
0
100
AcDbLine
 10
13.56363516631299
 20
9.13577399402841
 30
0.0
 11
3.763513382102792
 21
9.13577399402841
 31
0.0
  0
ARC
  5
CA
330
1F
100
AcDbEntity
  8
0
100
AcDbCircle
 10
12.88583646045809
 20
16.35632039393763
 30
0.0
 40
0.1526849654577784
100
AcDbArc
 50
357.1500247750275
 51
94.22502112388668
  0
LWPOLYLINE
  5
CB
330
1F
100
AcDbEntity
  8
0
100
AcDbPolyline
 90
       18
 70
   128
 43
0.0
 10
12.87458759131605
 20
16.50859042257054
 10
11.46697234692747
 20
16.48842646926625
 10
10.76315429392034
 20
16.47860042005761
 10
10.05931776347333
 20
16.46923042088731
 10
9.824681918646639
 20
16.46627276390775
 10
9.590034525420016
 20
16.46348535269482
 10
9.355376775886362
 20
16.46103634685261
 10
9.120709862138575
 20
16.45909383147938
 10
8.886034976269547
 20
16.4578258916734
 10
8.651353284760809
 20
16.45740068703873
 10
8.371408231134957
 20
16.4581203386186
 10
8.091474178757017
 20
16.45996659249051
 10
7.811552550222224
 20
16.46265640109761
 10
7.531644891526048
 20
16.46590694040044
 10
7.251752581025903
 20
16.46943538635953
 10
6.551954414274041
 20
16.47876582294686
 10
5.852519984866922
 20
16.48853472620232
 10
4.45256095709974
 20
16.50859042257054
  0
ARC
  5
CC
330
1F
100
AcDbEntity
  8
0
100
AcDbCircle
 10
4.441317774294858
 20
16.35631456946947
 30
0.0
 40
0.1526903552855965
100
AcDbArc
 50
85.77726784794769
 51
182.8476862531402
  0
LWPOLYLINE
  5
CD
330
1F
100
AcDbEntity
  8
0
100
AcDbPolyline
 90
       12
 70
   128
 43
0.0
 10
13.07984751048261
 20
9.881303526460964
 10
13.07158511462385
 20
10.599783875048
 10
13.06381535115415
 20
11.31827942281945
 10
13.05667620482618
 20
12.03679404407723
 10
13.05183124127561
 20
12.57570139318688
 10
13.04752540173704
 20
13.11462185531838
 10
13.04385733189756
 20
13.65354887396081
 10
13.04093253197843
 20
14.19248900562509
 10
13.03886663499052
 20
14.73154059797509
 10
13.03772580208951
 20
15.27060258388503
 10
13.0375383454817
 20
15.80966769903882
 10
13.03833257737333
 20
16.34872875362618
  0
LWPOLYLINE
  5
CE
330
1F
100
AcDbEntity
  8
0
100
AcDbPolyline
 90
       12
 70
   128
 43
0.0
 10
4.288815971042459
 20
16.34872875362618
 10
4.289609606887643
 20
15.81120223924501
 10
4.289426918651407
 20
15.27367166429742
 10
4.288295920516794
 20
14.73614416271432
 10
4.286244626666849
 20
14.19862694293244
 10
4.283338602210824
 20
13.66105980426057
 10
4.27969228806669
 20
13.12350443750603
 10
4.275406416084115
 20
12.58596233278497
 10
4.270582016135995
 20
12.04843423515542
 10
4.265267666007821
 20
11.50663755089028
 10
4.259573932315652
 20
10.96485189348443
 10
4.247301037933175
 20
9.881303526460964
  0
ARC
  5
CF
330
1F
100
AcDbEntity
  8
0
100
AcDbCircle
 10
4.399285710065084
 20
9.871044225608356
 30
0.0
 40
0.1523305413140391
100
AcDbArc
 50
176.1382666920015
 51
273.5066181009755
  0
ARC
  5
D0
330
1F
100
AcDbEntity
  8
0
100
AcDbCircle
 10
12.9278653449254
 20
9.871041734521282
 30
0.0
 40
0.152328208225764
100
AcDbArc
 50
266.4923835474716
 51
3.862731659552688
  0
ARC
  5
D1
330
1F
100
AcDbEntity
  8
0
100
AcDbCircle
 10
8.663574274207896
 20
-442.2856368077393
 30
0.0
 40
452.0246624590379
100
AcDbArc
 50
89.46065883921349
 51
90.5393411607865
  0
CIRCLE
  5
D2
330
1F
100
AcDbEntity
  8
0
100
AcDbCircle
 10
8.663574274207896
 20
15.63577375560983
 30
0.0
 40
0.5999999999999997
  0
CIRCLE
  5
D3
330
1F
100
AcDbEntity
  8
0
100
AcDbCircle
 10
8.663574274207896
 20
15.63577375560983
 30
0.0
 40
0.4500000000000011
  0
ENDSEC
  0
SECTION
  2
OBJECTS
  0
DICTIONARY
  5
C
330
0
100
AcDbDictionary
  3
ACAD_GROUP
350
D
  3
ACAD_LAYOUT
350
1A
  3
ACAD_MLINESTYLE
350
17
  3
ACAD_PLOTSETTINGS
350
19
  3
ACAD_PLOTSTYLENAME
350
E
  3
ACDBHEADERROUNDTRIPXREC
350
23A
  3
ACDBVARIABLEDICTIONARY
350
237
  0
DICTIONARY
  5
25D
330
1F
100
AcDbDictionary
280
     1
  3
ACAD_LAYOUTSELFREF
360
25E
  0
DICTIONARY
  5
25B
330
1B
100
AcDbDictionary
280
     1
  3
ACAD_LAYOUTSELFREF
360
25C
  0
DICTIONARY
  5
D
102
{ACAD_REACTORS
330
C
102
}
330
C
100
AcDbDictionary
  0
DICTIONARY
  5
1A
102
{ACAD_REACTORS
330
C
102
}
330
C
100
AcDbDictionary
  0
DICTIONARY
  5
17
102
{ACAD_REACTORS
330
C
102
}
330
C
100
AcDbDictionary
  3
STANDARD
350
18
  0
DICTIONARY
  5
19
102
{ACAD_REACTORS
330
C
102
}
330
C
100
AcDbDictionary
  0
ACDBDICTIONARYWDFLT
  5
E
102
{ACAD_REACTORS
330
C
102
}
330
C
100
AcDbDictionary
281
     1
  3
Normal
350
F
100
AcDbDictionaryWithDefault
340
F
  0
DICTIONARY
  5
23A
102
{ACAD_REACTORS
330
C
102
}
330
C
100
AcDbDictionary
  3
CEPSNTYPE
350
244
  3
DIMSTYLEDATA
350
248
  3
FINGERPRINTGUID
350
245
  3
HYPERLINKBASE
350
23D
  3
INSUNITS
350
243
  3
LAYOUTDICT
350
23F
  3
LWETCUNION
350
242
  3
PLOTSETDICT
350
240
  3
PLOTSTYLNAMDICT
350
241
  3
PSVPSCALE
350
247
  3
PUCSBASE
350
24B
  3
PUCSORGBACK
350
251
  3
PUCSORGBOTTOM
350
24D
  3
PUCSORGFRONT
350
250
  3
PUCSORGLEFT
350
24E
  3
PUCSORGRIGHT
350
24F
  3
PUCSORGTOP
350
24C
  3
PUCSORTHOREF
350
249
  3
PUCSORTHOVIEW
350
24A
  3
STYLESHEET
350
23E
  3
TSTACKALIGN
350
23B
  3
TSTACKSIZE
350
23C
  3
UCSBASE
350
254
  3
UCSORGBACK
350
25A
  3
UCSORGBOTTOM
350
256
  3
UCSORGFRONT
350
259
  3
UCSORGLEFT
350
257
  3
UCSORGRIGHT
350
258
  3
UCSORGTOP
350
255
  3
UCSORTHOREF
350
252
  3
UCSORTHOVIEW
350
253
  3
VERSIONGUID
350
246
  0
DICTIONARY
  5
237
102
{ACAD_REACTORS
330
C
102
}
330
C
100
AcDbDictionary
  3
DIMASSOC
350
238
  0
XRECORD
  5
25E
102
{ACAD_REACTORS
330
25D
102
}
330
25D
100
AcDbXrecord
340
1F
  0
XRECORD
  5
25C
102
{ACAD_REACTORS
330
25B
102
}
330
25B
100
AcDbXrecord
340
1B
  0
MLINESTYLE
  5
18
102
{ACAD_REACTORS
330
17
102
}
330
17
100
AcDbMlineStyle
  2
STANDARD
 70
     0
  3

 62
   256
 51
90.0
 52
90.0
 71
     2
 49
0.5
 62
   256
  6
BYLAYER
 49
-0.5
 62
   256
  6
BYLAYER
  0
ACDBPLACEHOLDER
  5
F
102
{ACAD_REACTORS
330
E
102
}
330
E
100
AcDbPlaceHolder
280
     0
  0
XRECORD
  5
244
102
{ACAD_REACTORS
330
23A
102
}
330
23A
100
AcDbXrecord
 90
        0
  0
XRECORD
  5
248
102
{ACAD_REACTORS
330
23A
102
}
330
23A
100
AcDbXrecord
1000
DSTYLE
1002
{
1070
   278
 70
    44
1002
}
  0
XRECORD
  5
245
102
{ACAD_REACTORS
330
23A
102
}
330
23A
100
AcDbXrecord
  1
{F78CC1A3-ACE4-4189-BF35-16D152BA0F0D}
  0
XRECORD
  5
23D
102
{ACAD_REACTORS
330
23A
102
}
330
23A
100
AcDbXrecord
  1

  0
XRECORD
  5
243
102
{ACAD_REACTORS
330
23A
102
}
330
23A
100
AcDbXrecord
 90
        4
  0
XRECORD
  5
23F
102
{ACAD_REACTORS
330
23A
102
}
330
23A
100
AcDbXrecord
340
1A
  0
XRECORD
  5
242
102
{ACAD_REACTORS
330
23A
102
}
330
23A
100
AcDbXrecord
 90
    10781
  0
XRECORD
  5
240
102
{ACAD_REACTORS
330
23A
102
}
330
23A
100
AcDbXrecord
340
19
  0
XRECORD
  5
241
102
{ACAD_REACTORS
330
23A
102
}
330
23A
100
AcDbXrecord
340
E
  0
XRECORD
  5
247
102
{ACAD_REACTORS
330
23A
102
}
330
23A
100
AcDbXrecord
 40
0.0
  0
XRECORD
  5
24B
102
{ACAD_REACTORS
330
23A
102
}
330
23A
100
AcDbXrecord
340
0
  0
XRECORD
  5
251
102
{ACAD_REACTORS
330
23A
102
}
330
23A
100
AcDbXrecord
 10
0.0
 20
0.0
 30
0.0
  0
XRECORD
  5
24D
102
{ACAD_REACTORS
330
23A
102
}
330
23A
100
AcDbXrecord
 10
0.0
 20
0.0
 30
0.0
  0
XRECORD
  5
250
102
{ACAD_REACTORS
330
23A
102
}
330
23A
100
AcDbXrecord
 10
0.0
 20
0.0
 30
0.0
  0
XRECORD
  5
24E
102
{ACAD_REACTORS
330
23A
102
}
330
23A
100
AcDbXrecord
 10
0.0
 20
0.0
 30
0.0
  0
XRECORD
  5
24F
102
{ACAD_REACTORS
330
23A
102
}
330
23A
100
AcDbXrecord
 10
0.0
 20
0.0
 30
0.0
  0
XRECORD
  5
24C
102
{ACAD_REACTORS
330
23A
102
}
330
23A
100
AcDbXrecord
 10
0.0
 20
0.0
 30
0.0
  0
XRECORD
  5
249
102
{ACAD_REACTORS
330
23A
102
}
330
23A
100
AcDbXrecord
340
0
  0
XRECORD
  5
24A
102
{ACAD_REACTORS
330
23A
102
}
330
23A
100
AcDbXrecord
 70
     0
  0
XRECORD
  5
23E
102
{ACAD_REACTORS
330
23A
102
}
330
23A
100
AcDbXrecord
  1

  0
XRECORD
  5
23B
102
{ACAD_REACTORS
330
23A
102
}
330
23A
100
AcDbXrecord
 90
        1
  0
XRECORD
  5
23C
102
{ACAD_REACTORS
330
23A
102
}
330
23A
100
AcDbXrecord
 90
       70
  0
XRECORD
  5
254
102
{ACAD_REACTORS
330
23A
102
}
330
23A
100
AcDbXrecord
340
0
  0
XRECORD
  5
25A
102
{ACAD_REACTORS
330
23A
102
}
330
23A
100
AcDbXrecord
 10
0.0
 20
0.0
 30
0.0
  0
XRECORD
  5
256
102
{ACAD_REACTORS
330
23A
102
}
330
23A
100
AcDbXrecord
 10
0.0
 20
0.0
 30
0.0
  0
XRECORD
  5
259
102
{ACAD_REACTORS
330
23A
102
}
330
23A
100
AcDbXrecord
 10
0.0
 20
0.0
 30
0.0
  0
XRECORD
  5
257
102
{ACAD_REACTORS
330
23A
102
}
330
23A
100
AcDbXrecord
 10
0.0
 20
0.0
 30
0.0
  0
XRECORD
  5
258
102
{ACAD_REACTORS
330
23A
102
}
330
23A
100
AcDbXrecord
 10
0.0
 20
0.0
 30
0.0
  0
XRECORD
  5
255
102
{ACAD_REACTORS
330
23A
102
}
330
23A
100
AcDbXrecord
 10
0.0
 20
0.0
 30
0.0
  0
XRECORD
  5
252
102
{ACAD_REACTORS
330
23A
102
}
330
23A
100
AcDbXrecord
340
0
  0
XRECORD
  5
253
102
{ACAD_REACTORS
330
23A
102
}
330
23A
100
AcDbXrecord
 70
     0
  0
XRECORD
  5
246
102
{ACAD_REACTORS
330
23A
102
}
330
23A
100
AcDbXrecord
  1
{B5024A99-2EE0-417D-8CDC-9758990208A3}
  0
DICTIONARYVAR
  5
238
102
{ACAD_REACTORS
330
237
102
}
330
237
100
DictionaryVariables
280
     0
  1
1
  0
ENDSEC
  0
EOF
