  0
SECTION
  2
HEADER
  9
$ACADVER
  1
AC1014
  9
$ACADMAINTVER
 70
     9
  9
$DWGCODEPAGE
  3
ANSI_1250
  9
$INSBASE
 10
0.0
 20
0.0
 30
0.0
  9
$EXTMIN
 10
2.873941807983523
 20
9.548278035955476
 30
0.0
  9
$EXTMAX
 10
14.91535590744747
 20
18.58969173379507
 30
0.0
  9
$LIMMIN
 10
0.0
 20
0.0
  9
$LIMMAX
 10
0.0
 20
0.0
  9
$ORTHOMODE
 70
     0
  9
$REGENMODE
 70
     1
  9
$FILLMODE
 70
     1
  9
$QTEXTMODE
 70
     0
  9
$MIRRTEXT
 70
     1
  9
$DRAGMODE
 70
     2
  9
$LTSCALE
 40
1.0
  9
$OSMODE
 70
  3007
  9
$ATTMODE
 70
     1
  9
$TEXTSIZE
 40
2.5
  9
$TRACEWID
 40
1.0
  9
$TEXTSTYLE
  7
STANDARD
  9
$CLAYER
  8
0
  9
$CELTYPE
  6
BYLAYER
  9
$CECOLOR
 62
   256
  9
$CELTSCALE
 40
1.0
  9
$DELOBJ
 70
     1
  9
$DISPSILH
 70
     0
  9
$DIMSCALE
 40
1.0
  9
$DIMASZ
 40
0.3
  9
$DIMEXO
 40
0.01
  9
$DIMDLI
 40
3.75
  9
$DIMRND
 40
0.0
  9
$DIMDLE
 40
0.0
  9
$DIMEXE
 40
0.1
  9
$DIMTP
 40
0.0
  9
$DIMTM
 40
0.0
  9
$DIMTXT
 40
0.2822222222222222
  9
$DIMCEN
 40
2.5
  9
$DIMTSZ
 40
0.0
  9
$DIMTOL
 70
     0
  9
$DIMLIM
 70
     0
  9
$DIMTIH
 70
     1
  9
$DIMTOH
 70
     1
  9
$DIMSE1
 70
     0
  9
$DIMSE2
 70
     0
  9
$DIMTAD
 70
     1
  9
$DIMZIN
 70
     0
  9
$DIMBLK
  1

  9
$DIMASO
 70
     1
  9
$DIMSHO
 70
     1
  9
$DIMPOST
  1

  9
$DIMAPOST
  1

  9
$DIMALT
 70
     0
  9
$DIMALTD
 70
     3
  9
$DIMALTF
 40
0.3937007874015748
  9
$DIMLFAC
 40
10.0
  9
$DIMTOFL
 70
     1
  9
$DIMTVP
 40
0.0
  9
$DIMTIX
 70
     0
  9
$DIMSOXD
 70
     0
  9
$DIMSAH
 70
     0
  9
$DIMBLK1
  1

  9
$DIMBLK2
  1

  9
$DIMSTYLE
  2
ISO-25
  9
$DIMCLRD
 70
     0
  9
$DIMCLRE
 70
     0
  9
$DIMCLRT
 70
     0
  9
$DIMTFAC
 40
1.0
  9
$DIMGAP
 40
0.1524
  9
$DIMJUST
 70
     0
  9
$DIMSD1
 70
     0
  9
$DIMSD2
 70
     0
  9
$DIMTOLJ
 70
     0
  9
$DIMTZIN
 70
     0
  9
$DIMALTZ
 70
     0
  9
$DIMALTTZ
 70
     0
  9
$DIMFIT
 70
     3
  9
$DIMUPT
 70
     0
  9
$DIMUNIT
 70
     2
  9
$DIMDEC
 70
     2
  9
$DIMTDEC
 70
     2
  9
$DIMALTU
 70
     2
  9
$DIMALTTD
 70
     3
  9
$DIMTXSTY
  7
STANDARD
  9
$DIMAUNIT
 70
     0
  9
$LUNITS
 70
     2
  9
$LUPREC
 70
     2
  9
$SKETCHINC
 40
1.0
  9
$FILLETRAD
 40
10.0
  9
$AUNITS
 70
     0
  9
$AUPREC
 70
     0
  9
$MENU
  1
.
  9
$ELEVATION
 40
0.0
  9
$PELEVATION
 40
0.0
  9
$THICKNESS
 40
0.0
  9
$LIMCHECK
 70
     0
  9
$BLIPMODE
 70
     0
  9
$CHAMFERA
 40
10.0
  9
$CHAMFERB
 40
10.0
  9
$CHAMFERC
 40
20.0
  9
$CHAMFERD
 40
0.0
  9
$SKPOLY
 70
     0
  9
$TDCREATE
 40
2453965.640175590
  9
$TDUPDATE
 40
2453966.357293286
  9
$TDINDWG
 40
0.0025906134
  9
$TDUSRTIMER
 40
0.0025906134
  9
$USRTIMER
 70
     1
  9
$ANGBASE
 50
0.0
  9
$ANGDIR
 70
     0
  9
$PDMODE
 70
     0
  9
$PDSIZE
 40
-1.0
  9
$PLINEWID
 40
0.0
  9
$COORDS
 70
     2
  9
$SPLFRAME
 70
     0
  9
$SPLINETYPE
 70
     6
  9
$SPLINESEGS
 70
     8
  9
$ATTDIA
 70
     0
  9
$ATTREQ
 70
     1
  9
$HANDLING
 70
 22529
  9
$HANDSEED
  5
2CB
  9
$SURFTAB1
 70
     6
  9
$SURFTAB2
 70
     6
  9
$SURFTYPE
 70
     6
  9
$SURFU
 70
     6
  9
$SURFV
 70
     6
  9
$UCSNAME
  2

  9
$UCSORG
 10
0.0
 20
0.0
 30
0.0
  9
$UCSXDIR
 10
1.0
 20
0.0
 30
0.0
  9
$UCSYDIR
 10
0.0
 20
1.0
 30
0.0
  9
$PUCSNAME
  2

  9
$PUCSORG
 10
0.0
 20
0.0
 30
0.0
  9
$PUCSXDIR
 10
1.0
 20
0.0
 30
0.0
  9
$PUCSYDIR
 10
0.0
 20
1.0
 30
0.0
  9
$USERI1
 70
     0
  9
$USERI2
 70
     0
  9
$USERI3
 70
     0
  9
$USERI4
 70
     0
  9
$USERI5
 70
     0
  9
$USERR1
 40
0.0
  9
$USERR2
 40
0.0
  9
$USERR3
 40
0.0
  9
$USERR4
 40
0.0
  9
$USERR5
 40
0.0
  9
$WORLDVIEW
 70
     1
  9
$SHADEDGE
 70
     3
  9
$SHADEDIF
 70
    70
  9
$TILEMODE
 70
     1
  9
$MAXACTVP
 70
    48
  9
$PINSBASE
 10
0.0
 20
0.0
 30
0.0
  9
$PLIMCHECK
 70
     0
  9
$PEXTMIN
 10
1.000000000000000E+20
 20
1.000000000000000E+20
 30
1.000000000000000E+20
  9
$PEXTMAX
 10
-1.000000000000000E+20
 20
-1.000000000000000E+20
 30
-1.000000000000000E+20
  9
$PLIMMIN
 10
0.0
 20
0.0
  9
$PLIMMAX
 10
420.0
 20
297.0
  9
$UNITMODE
 70
     0
  9
$VISRETAIN
 70
     1
  9
$PLINEGEN
 70
     0
  9
$PSLTSCALE
 70
     1
  9
$TREEDEPTH
 70
  3020
  9
$PICKSTYLE
 70
     1
  9
$CMLSTYLE
  2
STANDARD
  9
$CMLJUST
 70
     0
  9
$CMLSCALE
 40
20.0
  9
$PROXYGRAPHICS
 70
     1
  9
$MEASUREMENT
 70
     1
  0
ENDSEC
  0
SECTION
  2
CLASSES
  0
CLASS
  1
ACDBDICTIONARYWDFLT
  2
AcDbDictionaryWithDefault
  3
AutoCAD 2000
 90
        0
280
     0
281
     0
  0
CLASS
  1
ACDBPLACEHOLDER
  2
AcDbPlaceHolder
  3
AutoCAD 2000
 90
        0
280
     0
281
     0
  0
CLASS
  1
LAYOUT
  2
AcDbLayout
  3
AutoCAD 2000
 90
        0
280
     0
281
     0
  0
CLASS
  1
DICTIONARYVAR
  2
AcDbDictionaryVar
  3
AutoCAD 2000
 90
        0
280
     0
281
     0
  0
CLASS
  1
LONG_TRANSACTION
  2
AcDbLongTransaction
  3
AutoCAD 2000
 90
        0
280
     0
281
     0
  0
CLASS
  1
LWPOLYLINE
  2
AcDbPolyline
  3
AutoCAD 2000
 90
        0
280
     0
281
     1
  0
CLASS
  1
HATCH
  2
AcDbHatch
  3
AutoCAD 2000
 90
        0
280
     0
281
     1
  0
CLASS
  1
XRECORD
  2
AcDbXrecord
  3
AutoCAD 2000
 90
        0
280
     0
281
     0
  0
CLASS
  1
LONG_TRANSACTION
  2
AcDbLongTransaction
  3
AutoCAD 2000
 90
        0
280
     0
281
     0
  0
CLASS
  1
LWPOLYLINE
  2
AcDbPolyline
  3
AutoCAD 2000
 90
        0
280
     0
281
     1
  0
CLASS
  1
HATCH
  2
AcDbHatch
  3
AutoCAD 2000
 90
        0
280
     0
281
     1
  0
CLASS
  1
XRECORD
  2
AcDbXrecord
  3
AutoCAD 2000
 90
        0
280
     0
281
     0
  0
ENDSEC
  0
SECTION
  2
TABLES
  0
TABLE
  2
VPORT
  5
8
330
0
100
AcDbSymbolTable
 70
     2
  0
VPORT
  5
2A6
330
8
100
AcDbSymbolTableRecord
100
AcDbViewportTableRecord
  2
*ACTIVE
 70
     0
 10
0.0
 20
0.0
 11
1.0
 21
1.0
 12
8.894002595175992
 22
14.06884007990458
 13
0.0
 23
0.0
 14
10.0
 24
10.0
 15
10.0
 25
10.0
 16
0.0
 26
0.0
 36
1.0
 17
0.0
 27
0.0
 37
0.0
 40
9.129975379495439
 41
1.674961119751166
 42
50.0
 43
0.0
 44
0.0
 50
0.0
 51
0.0
 71
     0
 72
  2000
 73
     1
 74
     3
 75
     0
 76
     0
 77
     0
 78
     0
  0
ENDTAB
  0
TABLE
  2
LTYPE
  5
5
330
0
100
AcDbSymbolTable
 70
     1
  0
LTYPE
  5
14
330
5
100
AcDbSymbolTableRecord
100
AcDbLinetypeTableRecord
  2
BYBLOCK
 70
     0
  3

 72
    65
 73
     0
 40
0.0
  0
LTYPE
  5
15
330
5
100
AcDbSymbolTableRecord
100
AcDbLinetypeTableRecord
  2
BYLAYER
 70
     0
  3

 72
    65
 73
     0
 40
0.0
  0
LTYPE
  5
16
330
5
100
AcDbSymbolTableRecord
100
AcDbLinetypeTableRecord
  2
CONTINUOUS
 70
     0
  3
Solid line
 72
    65
 73
     0
 40
0.0
  0
ENDTAB
  0
TABLE
  2
LAYER
  5
2
330
0
100
AcDbSymbolTable
 70
     1
  0
LAYER
  5
10
330
2
100
AcDbSymbolTableRecord
100
AcDbLayerTableRecord
  2
0
 70
     0
 62
     7
  6
CONTINUOUS
  0
ENDTAB
  0
TABLE
  2
STYLE
  5
3
330
0
100
AcDbSymbolTable
 70
     1
  0
STYLE
  5
11
330
3
100
AcDbSymbolTableRecord
100
AcDbTextStyleTableRecord
  2
STANDARD
 70
     0
 40
0.0
 41
1.0
 50
0.0
 71
     0
 42
2.5
  3
ARIAL.TTF
  4

1001
ACAD
1000
Arial
1071
       34
  0
ENDTAB
  0
TABLE
  2
VIEW
  5
6
330
0
100
AcDbSymbolTable
 70
     0
  0
ENDTAB
  0
TABLE
  2
UCS
  5
7
330
0
100
AcDbSymbolTable
 70
     0
  0
ENDTAB
  0
TABLE
  2
APPID
  5
9
330
0
100
AcDbSymbolTable
 70
     1
  0
APPID
  5
12
330
9
100
AcDbSymbolTableRecord
100
AcDbRegAppTableRecord
  2
ACAD
 70
     0
  0
ENDTAB
  0
TABLE
  2
DIMSTYLE
  5
A
330
0
100
AcDbSymbolTable
 70
     1
  0
DIMSTYLE
105
27
330
A
100
AcDbSymbolTableRecord
100
AcDbDimStyleTableRecord
  2
ISO-25
 70
     0
  3

  4

  5

  6

  7

 40
1.0
 41
2.5
 42
0.625
 43
3.75
 44
1.25
 45
0.0
 46
0.0
 47
0.0
 48
0.0
140
2.5
141
2.5
142
0.0
143
0.03937007874016
144
1.0
145
0.0
146
1.0
147
0.625
 71
     0
 72
     0
 73
     0
 74
     0
 75
     0
 76
     0
 77
     1
 78
     8
170
     0
171
     3
172
     1
173
     0
174
     0
175
     0
176
     0
177
     0
178
     0
270
     2
271
     2
272
     2
273
     2
274
     3
340
11
275
     0
280
     0
281
     0
282
     0
283
     0
284
     8
285
     0
286
     0
287
     3
288
     0
  0
ENDTAB
  0
TABLE
  2
BLOCK_RECORD
  5
1
330
0
100
AcDbSymbolTable
 70
     1
  0
BLOCK_RECORD
  5
1F
102
{ACAD_XDICTIONARY
360
269
102
}
330
1
100
AcDbSymbolTableRecord
100
AcDbBlockTableRecord
  2
*MODEL_SPACE
  0
BLOCK_RECORD
  5
1B
102
{ACAD_XDICTIONARY
360
26B
102
}
330
1
100
AcDbSymbolTableRecord
100
AcDbBlockTableRecord
  2
*PAPER_SPACE
  0
ENDTAB
  0
ENDSEC
  0
SECTION
  2
BLOCKS
  0
BLOCK
  5
20
330
1F
100
AcDbEntity
  8
0
100
AcDbBlockBegin
  2
*MODEL_SPACE
 70
     0
 10
0.0
 20
0.0
 30
0.0
  3
*MODEL_SPACE
  1

  0
ENDBLK
  5
21
330
1F
100
AcDbEntity
  8
0
100
AcDbBlockEnd
  0
BLOCK
  5
1C
330
1B
100
AcDbEntity
 67
     1
  8
0
100
AcDbBlockBegin
  2
*PAPER_SPACE
 70
     0
 10
0.0
 20
0.0
 30
0.0
  3
*PAPER_SPACE
  1

  0
ENDBLK
  5
1D
330
1B
100
AcDbEntity
 67
     1
  8
0
100
AcDbBlockEnd
  0
ENDSEC
  0
SECTION
  2
ENTITIES
  0
ARC
  5
A8
330
1F
100
AcDbEntity
  8
0
  6
CONTINUOUS
 62
     7
100
AcDbCircle
 10
2.994558082795297
 20
18.46907550812792
 30
0.0
 40
0.0999094678663939
100
AcDbArc
 50
89.98299959268871
 51
180.0170375181977
  0
ARC
  5
A9
330
1F
100
AcDbEntity
  8
0
  6
CONTINUOUS
 62
     7
100
AcDbCircle
 10
14.79473963273413
 20
18.46907550812816
 30
0.0
 40
0.0999094678662639
100
AcDbArc
 50
359.9829624816541
 51
90.01700040738596
  0
ARC
  5
AA
330
1F
100
AcDbEntity
  8
0
  6
CONTINUOUS
 62
     7
100
AcDbCircle
 10
14.79473983248069
 20
9.668894110962863
 30
0.0
 40
0.0999092681599591
100
AcDbArc
 50
269.9828850083465
 51
0.0171149917055457
  0
ARC
  5
AB
330
1F
100
AcDbEntity
  8
0
  6
CONTINUOUS
 62
     7
100
AcDbCircle
 10
2.994557883048592
 20
9.668894110963016
 30
0.0
 40
0.0999092681600266
100
AcDbArc
 50
179.9828848489229
 51
270.0171149916639
  0
LINE
  5
AC
330
1F
100
AcDbEntity
  8
0
  6
CONTINUOUS
 62
     7
100
AcDbLine
 10
14.79470998828833
 20
18.56898490686505
 30
0.0
 11
2.99458772724097
 21
18.56898490686505
 31
0.0
  0
LINE
  5
AD
330
1F
100
AcDbEntity
  8
0
  6
CONTINUOUS
 62
     7
100
AcDbLine
 10
2.894648619346072
 20
18.46904579897016
 30
0.0
 11
2.894648619346072
 21
9.66892395515531
 31
0.0
  0
LINE
  5
AE
330
1F
100
AcDbEntity
  8
0
  6
CONTINUOUS
 62
     7
100
AcDbLine
 10
14.89464909618323
 20
9.66892395515531
 30
0.0
 11
14.89464909618323
 21
18.46904579897016
 31
0.0
  0
LINE
  5
AF
330
1F
100
AcDbEntity
  8
0
  6
CONTINUOUS
 62
     7
100
AcDbLine
 10
2.99458772724097
 20
9.568984847260413
 30
0.0
 11
14.79470998828833
 21
9.568984847260413
 31
0.0
  0
CIRCLE
  5
B0
330
1F
100
AcDbEntity
  8
0
  6
CONTINUOUS
 62
     7
100
AcDbCircle
 10
8.894648857764652
 20
17.06898484726041
 30
0.0
 40
0.4499999999999993
  0
LWPOLYLINE
  5
B1
330
1F
100
AcDbEntity
  8
0
  6
CONTINUOUS
 62
     7
100
AcDbPolyline
 90
       14
 70
   128
 43
0.0
 10
3.587796397857119
 20
10.1808628847131
 10
4.457354553393771
 20
10.18823538322537
 10
5.326939232997348
 20
10.19464169044583
 10
6.196545668296267
 20
10.19992027778714
 10
7.06616923993056
 20
10.20390961666196
 10
7.935805403046061
 20
10.20644996662228
 10
8.660639997921636
 20
10.20733628769009
 10
9.385480031721044
 20
10.20709250469296
 10
10.11031941359465
 20
10.20576928157895
 10
10.83515197818701
 20
10.20341728229611
 10
11.55997187679236
 20
10.20008776683896
 10
12.28477240388815
 20
10.19583020706265
 10
13.24314803665106
 20
10.18894050617306
 10
14.20150131767218
 20
10.1808628847131
  0
LWPOLYLINE
  5
BD
330
1F
100
AcDbEntity
  8
0
  6
CONTINUOUS
 62
     7
100
AcDbPolyline
 90
       12
 70
   128
 43
0.0
 10
14.28221375530188
 20
10.26199076671689
 10
14.27992136066382
 20
10.46195183296292
 10
14.27104324882452
 20
11.26180742282956
 10
14.26270694320624
 20
12.06168566246121
 10
14.25506324356024
 20
12.86158476371854
 10
14.24829573219244
 20
13.66150621671765
 10
14.24258620326941
 20
14.46145002145856
 10
14.23877806251471
 20
15.13439674277394
 10
14.23600883071845
 20
15.80736298461049
 10
14.23434347694342
 20
16.48034070034116
 10
14.23384697025244
 20
17.15332165707438
 10
14.23458427970832
 20
17.82629777093022
  0
ARC
  5
BF
330
1F
100
AcDbEntity
  8
0
  6
CONTINUOUS
 62
     7
100
AcDbCircle
 10
3.58154490232122
 20
10.25535374090974
 30
0.0
 40
0.074756150309262
100
AcDbArc
 50
174.9064402326658
 51
274.7969712390975
  0
LWPOLYLINE
  5
C0
330
1F
100
AcDbEntity
  8
0
  6
CONTINUOUS
 62
     7
100
AcDbPolyline
 90
       11
 70
   128
 43
0.0
 10
3.554713435820987
 20
17.82629777093022
 10
3.555462666205813
 20
17.15209544051974
 10
3.554983444861819
 20
16.47788916130155
 10
3.553321071319033
 20
15.80368806023686
 10
3.550520845107486
 20
15.12950111527532
 10
3.546673961333682
 20
14.45525322456449
 10
3.541923471145083
 20
13.78102068204968
 10
3.536395736388613
 20
13.10680482883542
 10
3.530215926818301
 20
12.43260655899137
 10
3.519172974280764
 20
11.34728405971616
 10
3.50708396022742
 20
10.26199076671689
  0
ARC
  5
C1
330
1F
100
AcDbEntity
  8
0
  6
CONTINUOUS
 62
     7
100
AcDbCircle
 10
3.629387153940854
 20
17.8315881017825
 30
0.0
 40
0.0749797775504526
100
AcDbArc
 50
84.45087483609198
 51
185.1786466440729
  0
LWPOLYLINE
  5
C2
330
1F
100
AcDbEntity
  8
0
  6
CONTINUOUS
 62
     7
100
AcDbPolyline
 90
       20
 70
   128
 43
0.0
 10
14.15266007965033
 20
17.90621649820893
 10
13.95272106712286
 20
17.9033166577348
 10
13.15296471898977
 20
17.8917561133632
 10
12.35320837085669
 20
17.88013745446294
 10
11.5534469563288
 20
17.86865745086759
 10
10.75366453116362
 20
17.85781298179715
 10
9.953845896176746
 20
17.84810100097745
 10
9.686179615907123
 20
17.84528214831441
 10
9.418495267979553
 20
17.84299236137956
 10
9.150797639392067
 20
17.84146603543847
 10
8.883091566037139
 20
17.84093793828576
 10
8.591589730582883
 20
17.84161564309686
 10
8.300100684515882
 20
17.84338664610475
 10
8.008624323062351
 20
17.84601871271222
 10
7.717160515837123
 20
17.84927968282788
 10
7.425709225587298
 20
17.85293717284291
 10
7.134270228795458
 20
17.85675902266591
 10
6.260093756369998
 20
17.86863316197484
 10
5.385934122256686
 20
17.88100403149217
 10
3.63663763587897
 20
17.90621649820893
  0
ARC
  5
C3
330
1F
100
AcDbEntity
  8
0
  6
CONTINUOUS
 62
     7
100
AcDbCircle
 10
14.15982622834235
 20
17.83145010495873
 30
0.0
 40
0.0751090357195445
100
AcDbArc
 50
354.4587890740879
 51
95.47491489733161
  0
ARC
  5
C4
330
1F
100
AcDbEntity
  8
0
  6
CONTINUOUS
 62
     7
100
AcDbCircle
 10
14.20770501942544
 20
10.25535051885326
 30
0.0
 40
0.0748040414255515
100
AcDbArc
 50
265.2428420045146
 51
5.092767848382793
  0
CIRCLE
  5
C5
330
1F
100
AcDbEntity
  8
0
  6
CONTINUOUS
 62
     7
100
AcDbCircle
 10
8.894648857764652
 20
17.06898484726041
 30
0.0
 40
0.6514146625136697
  0
LWPOLYLINE
  5
DC
330
1F
100
AcDbEntity
  8
0
  6
CONTINUOUS
 62
     7
100
AcDbPolyline
 90
       27
 70
   128
 43
0.0
 10
3.379363127402713
 20
17.8981966932544
 10
3.379674859694888
 20
17.91058276195615
 10
3.380610056571414
 20
17.92272609074204
 10
3.382166333846499
 20
17.93460015554517
 10
3.384340115241458
 20
17.94617873032182
 10
3.387126632384708
 20
17.95743655760377
 10
3.390520520858218
 20
17.96834882695764
 10
3.394512839965273
 20
17.9788916220197
 10
3.399096437148501
 20
17.98904184599011
 10
3.404260583571841
 20
17.99877722163289
 10
3.409993358306338
 20
18.00807629127591
 10
3.416283436469485
 20
18.01691878933995
 10
3.423115916900088
 20
18.02528526980966
 10
3.430476494483401
 20
18.03315732975095
 10
3.438348479918887
 20
18.04051768381684
 10
3.446715183906008
 20
18.04735031325906
 10
3.455557532958438
 20
18.05364009339898
 10
3.464856453589847
 20
18.05937324066251
 10
3.474591680221011
 20
18.06453716356843
 10
3.48474235122626
 20
18.06912061174005
 10
3.495284624747684
 20
18.07311345238774
 10
3.506197043113162
 20
18.07650696833222
 10
3.517455168418338
 20
18.07929370899289
 10
3.529033370665958
 20
18.08146749038785
 10
3.54090780799811
 20
18.08302361865132
 10
3.553051062278201
 20
18.08395866651624
 10
3.565436907462527
 20
18.08427062232583
  0
LINE
  5
DD
330
1F
100
AcDbEntity
  8
0
  6
CONTINUOUS
 62
     7
100
AcDbLine
 10
3.379363127402713
 20
10.23977313537686
 30
0.0
 11
3.379363127402713
 21
17.8981966932544
 31
0.0
  0
LWPOLYLINE
  5
DE
330
1F
100
AcDbEntity
  8
0
  6
CONTINUOUS
 62
     7
100
AcDbPolyline
 90
       27
 70
   128
 43
0.0
 10
3.565436907462527
 20
10.05369935531705
 10
3.553051062278201
 20
10.05401108760922
 10
3.54090780799811
 20
10.05494628448575
 10
3.529033370665958
 20
10.05650196571439
 10
3.517455168418338
 20
10.05867574710934
 10
3.506197043113162
 20
10.06146286029904
 10
3.495284624747684
 20
10.0648561527261
 10
3.48474235122626
 20
10.06884906787961
 10
3.474591680221011
 20
10.07343266506284
 10
3.464856453589847
 20
10.07859621543973
 10
3.455557532958438
 20
10.08432958622067
 10
3.446715183906008
 20
10.09061966438382
 10
3.438348479918887
 20
10.09745214481442
 10
3.430476494483401
 20
10.10481212635129
 10
3.423115916900088
 20
10.11268470783322
 10
3.416283436469485
 20
10.12105081577389
 10
3.409993358306338
 20
10.12989316482632
 10
3.404260583571841
 20
10.13919268150418
 10
3.399096437148501
 20
10.14892790813535
 10
3.394512839965273
 20
10.15907798309415
 10
3.390520520858218
 20
10.16962085266202
 10
3.387126632384708
 20
10.1805332710275
 10
3.384340115241458
 20
10.19179080028622
 10
3.382166333846499
 20
10.20336959858029
 10
3.380610056571414
 20
10.215243439866
 10
3.379674859694888
 20
10.22738669414609
 10
3.379363127402713
 20
10.23977313537686
  0
LINE
  5
DF
330
1F
100
AcDbEntity
  8
0
  6
CONTINUOUS
 62
     7
100
AcDbLine
 10
14.22386080806677
 20
10.05369935531705
 30
0.0
 11
3.565436907462527
 21
10.05369935531705
 31
0.0
  0
LWPOLYLINE
  5
E0
330
1F
100
AcDbEntity
  8
0
  6
CONTINUOUS
 62
     7
100
AcDbPolyline
 90
       27
 70
   128
 43
0.0
 10
14.40993458812659
 20
10.23977313537686
 10
14.40962285583441
 20
10.22738669414609
 10
14.40868765895789
 20
10.215243439866
 10
14.4071313816828
 20
10.20336959858029
 10
14.40495760028784
 20
10.19179080028622
 10
14.40217108314459
 20
10.1805332710275
 10
14.39877719467108
 20
10.16962085266202
 10
14.39478487556403
 20
10.15907798309415
 10
14.3902012783808
 20
10.14892790813535
 10
14.38503713195746
 20
10.13919268150418
 10
14.37930435722296
 20
10.12989316482632
 10
14.37301427905981
 20
10.12105081577389
 10
14.36618179862921
 20
10.11268470783322
 10
14.3588212210459
 20
10.10481212635129
 10
14.35094923561041
 20
10.09745214481442
 10
14.34258253162329
 20
10.09061966438382
 10
14.33374018257086
 20
10.08432958622067
 10
14.32444126193946
 20
10.07859621543973
 10
14.31470603530829
 20
10.07343266506284
 10
14.30455536430304
 20
10.06884906787961
 10
14.29401309078162
 20
10.0648561527261
 10
14.28310067241614
 20
10.06146286029904
 10
14.27184254711096
 20
10.05867574710934
 10
14.26026434486334
 20
10.05650196571439
 10
14.24838990753119
 20
10.05494628448575
 10
14.2362466532511
 20
10.05401108760922
 10
14.22386080806677
 20
10.05369935531705
  0
LINE
  5
E1
330
1F
100
AcDbEntity
  8
0
  6
CONTINUOUS
 62
     7
100
AcDbLine
 10
14.40993458812659
 20
17.8981966932544
 30
0.0
 11
14.40993458812659
 21
10.23977313537686
 31
0.0
  0
LWPOLYLINE
  5
E2
330
1F
100
AcDbEntity
  8
0
  6
CONTINUOUS
 62
     7
100
AcDbPolyline
 90
       27
 70
   128
 43
0.0
 10
14.22386080806677
 20
18.08427062232583
 10
14.2362466532511
 20
18.08395866651624
 10
14.24838990753119
 20
18.08302361865132
 10
14.26026434486334
 20
18.08146749038785
 10
14.27184254711096
 20
18.07929370899289
 10
14.28310067241614
 20
18.07650696833222
 10
14.29401309078162
 20
18.07311345238774
 10
14.30455536430304
 20
18.06912061174005
 10
14.31470603530829
 20
18.06453716356843
 10
14.32444126193946
 20
18.05937324066251
 10
14.33374018257086
 20
18.05364009339898
 10
14.34258253162329
 20
18.04735031325906
 10
14.35094923561041
 20
18.04051768381684
 10
14.3588212210459
 20
18.03315732975095
 10
14.36618179862921
 20
18.02528526980966
 10
14.37301427905981
 20
18.01691878933995
 10
14.37930435722296
 20
18.00807629127591
 10
14.38503713195746
 20
17.99877722163289
 10
14.3902012783808
 20
17.98904184599011
 10
14.39478487556403
 20
17.9788916220197
 10
14.39877719467108
 20
17.96834882695764
 10
14.40217108314459
 20
17.95743655760377
 10
14.40495760028784
 20
17.94617873032182
 10
14.4071313816828
 20
17.93460015554517
 10
14.40868765895789
 20
17.92272609074204
 10
14.40962285583441
 20
17.91058276195615
 10
14.40993458812659
 20
17.8981966932544
  0
LINE
  5
E3
330
1F
100
AcDbEntity
  8
0
  6
CONTINUOUS
 62
     7
100
AcDbLine
 10
3.565436907462527
 20
18.08427062232583
 30
0.0
 11
14.22386080806677
 21
18.08427062232583
 31
0.0
  0
ENDSEC
  0
SECTION
  2
OBJECTS
  0
DICTIONARY
  5
C
330
0
100
AcDbDictionary
  3
ACAD_GROUP
350
D
  3
ACAD_LAYOUT
350
1A
  3
ACAD_MLINESTYLE
350
17
  3
ACAD_PLOTSETTINGS
350
19
  3
ACAD_PLOTSTYLENAME
350
E
  3
ACDBHEADERROUNDTRIPXREC
350
2A7
  3
ACDBVARIABLEDICTIONARY
350
2A1
  0
DICTIONARY
  5
269
330
1F
100
AcDbDictionary
280
     1
  3
ACAD_LAYOUTSELFREF
360
2C9
  0
DICTIONARY
  5
26B
330
1B
100
AcDbDictionary
280
     1
  3
ACAD_LAYOUTSELFREF
360
2C8
  0
DICTIONARY
  5
D
102
{ACAD_REACTORS
330
C
102
}
330
C
100
AcDbDictionary
  0
DICTIONARY
  5
1A
102
{ACAD_REACTORS
330
C
102
}
330
C
100
AcDbDictionary
  0
DICTIONARY
  5
17
102
{ACAD_REACTORS
330
C
102
}
330
C
100
AcDbDictionary
  3
STANDARD
350
18
  0
DICTIONARY
  5
19
102
{ACAD_REACTORS
330
C
102
}
330
C
100
AcDbDictionary
  0
ACDBDICTIONARYWDFLT
  5
E
102
{ACAD_REACTORS
330
C
102
}
330
C
100
AcDbDictionary
281
     1
  3
Normal
350
F
100
AcDbDictionaryWithDefault
340
F
  0
DICTIONARY
  5
2A7
102
{ACAD_REACTORS
330
C
102
}
330
C
100
AcDbDictionary
  3
CEPSNTYPE
350
2B1
  3
DIMSTYLEDATA
350
2B5
  3
FINGERPRINTGUID
350
2B2
  3
HYPERLINKBASE
350
2AA
  3
INSUNITS
350
2B0
  3
LAYOUTDICT
350
2AC
  3
LWETCUNION
350
2AF
  3
PLOTSETDICT
350
2AD
  3
PLOTSTYLNAMDICT
350
2AE
  3
PSVPSCALE
350
2B4
  3
PUCSBASE
350
2B8
  3
PUCSORGBACK
350
2BE
  3
PUCSORGBOTTOM
350
2BA
  3
PUCSORGFRONT
350
2BD
  3
PUCSORGLEFT
350
2BB
  3
PUCSORGRIGHT
350
2BC
  3
PUCSORGTOP
350
2B9
  3
PUCSORTHOREF
350
2B6
  3
PUCSORTHOVIEW
350
2B7
  3
STYLESHEET
350
2AB
  3
TSTACKALIGN
350
2A8
  3
TSTACKSIZE
350
2A9
  3
UCSBASE
350
2C1
  3
UCSORGBACK
350
2C7
  3
UCSORGBOTTOM
350
2C3
  3
UCSORGFRONT
350
2C6
  3
UCSORGLEFT
350
2C4
  3
UCSORGRIGHT
350
2C5
  3
UCSORGTOP
350
2C2
  3
UCSORTHOREF
350
2BF
  3
UCSORTHOVIEW
350
2C0
  3
VERSIONGUID
350
2B3
  0
DICTIONARY
  5
2A1
102
{ACAD_REACTORS
330
C
102
}
330
C
100
AcDbDictionary
  3
DIMASSOC
350
2A2
  0
XRECORD
  5
2C9
102
{ACAD_REACTORS
330
269
102
}
330
269
100
AcDbXrecord
340
1F
  0
XRECORD
  5
2C8
102
{ACAD_REACTORS
330
26B
102
}
330
26B
100
AcDbXrecord
340
1B
  0
MLINESTYLE
  5
18
102
{ACAD_REACTORS
330
17
102
}
330
17
100
AcDbMlineStyle
  2
STANDARD
 70
     0
  3

 62
   256
 51
90.0
 52
90.0
 71
     2
 49
0.5
 62
   256
  6
BYLAYER
 49
-0.5
 62
   256
  6
BYLAYER
  0
ACDBPLACEHOLDER
  5
F
102
{ACAD_REACTORS
330
E
102
}
330
E
100
AcDbPlaceHolder
280
     0
  0
XRECORD
  5
2B1
102
{ACAD_REACTORS
330
2A7
102
}
330
2A7
100
AcDbXrecord
 90
        0
  0
XRECORD
  5
2B5
102
{ACAD_REACTORS
330
2A7
102
}
330
2A7
100
AcDbXrecord
1000
DSTYLE
1002
{
1070
   278
 70
    44
1002
}
  0
XRECORD
  5
2B2
102
{ACAD_REACTORS
330
2A7
102
}
330
2A7
100
AcDbXrecord
  1
{FEE4309D-2D0F-4759-831F-D45B02393841}
  0
XRECORD
  5
2AA
102
{ACAD_REACTORS
330
2A7
102
}
330
2A7
100
AcDbXrecord
  1

  0
XRECORD
  5
2B0
102
{ACAD_REACTORS
330
2A7
102
}
330
2A7
100
AcDbXrecord
 90
        4
  0
XRECORD
  5
2AC
102
{ACAD_REACTORS
330
2A7
102
}
330
2A7
100
AcDbXrecord
340
1A
  0
XRECORD
  5
2AF
102
{ACAD_REACTORS
330
2A7
102
}
330
2A7
100
AcDbXrecord
 90
    10269
  0
XRECORD
  5
2AD
102
{ACAD_REACTORS
330
2A7
102
}
330
2A7
100
AcDbXrecord
340
19
  0
XRECORD
  5
2AE
102
{ACAD_REACTORS
330
2A7
102
}
330
2A7
100
AcDbXrecord
340
E
  0
XRECORD
  5
2B4
102
{ACAD_REACTORS
330
2A7
102
}
330
2A7
100
AcDbXrecord
 40
0.0
  0
XRECORD
  5
2B8
102
{ACAD_REACTORS
330
2A7
102
}
330
2A7
100
AcDbXrecord
340
0
  0
XRECORD
  5
2BE
102
{ACAD_REACTORS
330
2A7
102
}
330
2A7
100
AcDbXrecord
 10
0.0
 20
0.0
 30
0.0
  0
XRECORD
  5
2BA
102
{ACAD_REACTORS
330
2A7
102
}
330
2A7
100
AcDbXrecord
 10
0.0
 20
0.0
 30
0.0
  0
XRECORD
  5
2BD
102
{ACAD_REACTORS
330
2A7
102
}
330
2A7
100
AcDbXrecord
 10
0.0
 20
0.0
 30
0.0
  0
XRECORD
  5
2BB
102
{ACAD_REACTORS
330
2A7
102
}
330
2A7
100
AcDbXrecord
 10
0.0
 20
0.0
 30
0.0
  0
XRECORD
  5
2BC
102
{ACAD_REACTORS
330
2A7
102
}
330
2A7
100
AcDbXrecord
 10
0.0
 20
0.0
 30
0.0
  0
XRECORD
  5
2B9
102
{ACAD_REACTORS
330
2A7
102
}
330
2A7
100
AcDbXrecord
 10
0.0
 20
0.0
 30
0.0
  0
XRECORD
  5
2B6
102
{ACAD_REACTORS
330
2A7
102
}
330
2A7
100
AcDbXrecord
340
0
  0
XRECORD
  5
2B7
102
{ACAD_REACTORS
330
2A7
102
}
330
2A7
100
AcDbXrecord
 70
     0
  0
XRECORD
  5
2AB
102
{ACAD_REACTORS
330
2A7
102
}
330
2A7
100
AcDbXrecord
  1

  0
XRECORD
  5
2A8
102
{ACAD_REACTORS
330
2A7
102
}
330
2A7
100
AcDbXrecord
 90
        1
  0
XRECORD
  5
2A9
102
{ACAD_REACTORS
330
2A7
102
}
330
2A7
100
AcDbXrecord
 90
       70
  0
XRECORD
  5
2C1
102
{ACAD_REACTORS
330
2A7
102
}
330
2A7
100
AcDbXrecord
340
0
  0
XRECORD
  5
2C7
102
{ACAD_REACTORS
330
2A7
102
}
330
2A7
100
AcDbXrecord
 10
0.0
 20
0.0
 30
0.0
  0
XRECORD
  5
2C3
102
{ACAD_REACTORS
330
2A7
102
}
330
2A7
100
AcDbXrecord
 10
0.0
 20
0.0
 30
0.0
  0
XRECORD
  5
2C6
102
{ACAD_REACTORS
330
2A7
102
}
330
2A7
100
AcDbXrecord
 10
0.0
 20
0.0
 30
0.0
  0
XRECORD
  5
2C4
102
{ACAD_REACTORS
330
2A7
102
}
330
2A7
100
AcDbXrecord
 10
0.0
 20
0.0
 30
0.0
  0
XRECORD
  5
2C5
102
{ACAD_REACTORS
330
2A7
102
}
330
2A7
100
AcDbXrecord
 10
0.0
 20
0.0
 30
0.0
  0
XRECORD
  5
2C2
102
{ACAD_REACTORS
330
2A7
102
}
330
2A7
100
AcDbXrecord
 10
0.0
 20
0.0
 30
0.0
  0
XRECORD
  5
2BF
102
{ACAD_REACTORS
330
2A7
102
}
330
2A7
100
AcDbXrecord
340
0
  0
XRECORD
  5
2C0
102
{ACAD_REACTORS
330
2A7
102
}
330
2A7
100
AcDbXrecord
 70
     0
  0
XRECORD
  5
2B3
102
{ACAD_REACTORS
330
2A7
102
}
330
2A7
100
AcDbXrecord
  1
{7E1A9A5D-22B3-4E65-BE91-B1EBDC991C6C}
  0
DICTIONARYVAR
  5
2A2
102
{ACAD_REACTORS
330
2A1
102
}
330
2A1
100
DictionaryVariables
280
     0
  1
1
  0
ENDSEC
  0
EOF
