  0
SECTION
  2
HEADER
  9
$ACADVER
  1
AC1014
  9
$ACADMAINTVER
 70
     9
  9
$DWGCODEPAGE
  3
ANSI_1250
  9
$INSBASE
 10
0.0
 20
0.0
 30
0.0
  9
$EXTMIN
 10
3.845910082909883
 20
7.161436769394252
 30
0.0
  9
$EXTMAX
 10
12.84591008290988
 20
16.16143676939425
 30
0.0
  9
$LIMMIN
 10
0.0
 20
0.0
  9
$LIMMAX
 10
0.0
 20
0.0
  9
$ORTHOMODE
 70
     0
  9
$REGENMODE
 70
     1
  9
$FILLMODE
 70
     1
  9
$QTEXTMODE
 70
     0
  9
$MIRRTEXT
 70
     1
  9
$DRAGMODE
 70
     2
  9
$LTSCALE
 40
1.0
  9
$OSMODE
 70
  3007
  9
$ATTMODE
 70
     1
  9
$TEXTSIZE
 40
2.5
  9
$TRACEWID
 40
1.0
  9
$TEXTSTYLE
  7
STANDARD
  9
$CLAYER
  8
0
  9
$CELTYPE
  6
BYLAYER
  9
$CECOLOR
 62
   256
  9
$CELTSCALE
 40
1.0
  9
$DELOBJ
 70
     1
  9
$DISPSILH
 70
     0
  9
$DIMSCALE
 40
1.0
  9
$DIMASZ
 40
0.3
  9
$DIMEXO
 40
0.01
  9
$DIMDLI
 40
3.75
  9
$DIMRND
 40
0.0
  9
$DIMDLE
 40
0.0
  9
$DIMEXE
 40
0.1
  9
$DIMTP
 40
0.0
  9
$DIMTM
 40
0.0
  9
$DIMTXT
 40
0.2822222222222222
  9
$DIMCEN
 40
2.5
  9
$DIMTSZ
 40
0.0
  9
$DIMTOL
 70
     0
  9
$DIMLIM
 70
     0
  9
$DIMTIH
 70
     1
  9
$DIMTOH
 70
     1
  9
$DIMSE1
 70
     0
  9
$DIMSE2
 70
     0
  9
$DIMTAD
 70
     1
  9
$DIMZIN
 70
     0
  9
$DIMBLK
  1

  9
$DIMASO
 70
     1
  9
$DIMSHO
 70
     1
  9
$DIMPOST
  1

  9
$DIMAPOST
  1

  9
$DIMALT
 70
     0
  9
$DIMALTD
 70
     3
  9
$DIMALTF
 40
0.3937007874015748
  9
$DIMLFAC
 40
10.0
  9
$DIMTOFL
 70
     1
  9
$DIMTVP
 40
0.0
  9
$DIMTIX
 70
     0
  9
$DIMSOXD
 70
     0
  9
$DIMSAH
 70
     0
  9
$DIMBLK1
  1

  9
$DIMBLK2
  1

  9
$DIMSTYLE
  2
ISO-25
  9
$DIMCLRD
 70
     0
  9
$DIMCLRE
 70
     0
  9
$DIMCLRT
 70
     0
  9
$DIMTFAC
 40
1.0
  9
$DIMGAP
 40
0.1524
  9
$DIMJUST
 70
     0
  9
$DIMSD1
 70
     0
  9
$DIMSD2
 70
     0
  9
$DIMTOLJ
 70
     0
  9
$DIMTZIN
 70
     0
  9
$DIMALTZ
 70
     0
  9
$DIMALTTZ
 70
     0
  9
$DIMFIT
 70
     3
  9
$DIMUPT
 70
     0
  9
$DIMUNIT
 70
     2
  9
$DIMDEC
 70
     2
  9
$DIMTDEC
 70
     2
  9
$DIMALTU
 70
     2
  9
$DIMALTTD
 70
     3
  9
$DIMTXSTY
  7
STANDARD
  9
$DIMAUNIT
 70
     0
  9
$LUNITS
 70
     2
  9
$LUPREC
 70
     2
  9
$SKETCHINC
 40
1.0
  9
$FILLETRAD
 40
10.0
  9
$AUNITS
 70
     0
  9
$AUPREC
 70
     0
  9
$MENU
  1
.
  9
$ELEVATION
 40
0.0
  9
$PELEVATION
 40
0.0
  9
$THICKNESS
 40
0.0
  9
$LIMCHECK
 70
     0
  9
$BLIPMODE
 70
     0
  9
$CHAMFERA
 40
10.0
  9
$CHAMFERB
 40
10.0
  9
$CHAMFERC
 40
20.0
  9
$CHAMFERD
 40
0.0
  9
$SKPOLY
 70
     0
  9
$TDCREATE
 40
2453965.637285150
  9
$TDUPDATE
 40
2453966.357516817
  9
$TDINDWG
 40
0.0039100579
  9
$TDUSRTIMER
 40
0.0039100579
  9
$USRTIMER
 70
     1
  9
$ANGBASE
 50
0.0
  9
$ANGDIR
 70
     0
  9
$PDMODE
 70
     0
  9
$PDSIZE
 40
-1.0
  9
$PLINEWID
 40
0.0
  9
$COORDS
 70
     2
  9
$SPLFRAME
 70
     0
  9
$SPLINETYPE
 70
     6
  9
$SPLINESEGS
 70
     8
  9
$ATTDIA
 70
     0
  9
$ATTREQ
 70
     1
  9
$HANDLING
 70
 22529
  9
$HANDSEED
  5
298
  9
$SURFTAB1
 70
     6
  9
$SURFTAB2
 70
     6
  9
$SURFTYPE
 70
     6
  9
$SURFU
 70
     6
  9
$SURFV
 70
     6
  9
$UCSNAME
  2

  9
$UCSORG
 10
0.0
 20
0.0
 30
0.0
  9
$UCSXDIR
 10
1.0
 20
0.0
 30
0.0
  9
$UCSYDIR
 10
0.0
 20
1.0
 30
0.0
  9
$PUCSNAME
  2

  9
$PUCSORG
 10
0.0
 20
0.0
 30
0.0
  9
$PUCSXDIR
 10
1.0
 20
0.0
 30
0.0
  9
$PUCSYDIR
 10
0.0
 20
1.0
 30
0.0
  9
$USERI1
 70
     0
  9
$USERI2
 70
     0
  9
$USERI3
 70
     0
  9
$USERI4
 70
     0
  9
$USERI5
 70
     0
  9
$USERR1
 40
0.0
  9
$USERR2
 40
0.0
  9
$USERR3
 40
0.0
  9
$USERR4
 40
0.0
  9
$USERR5
 40
0.0
  9
$WORLDVIEW
 70
     1
  9
$SHADEDGE
 70
     3
  9
$SHADEDIF
 70
    70
  9
$TILEMODE
 70
     1
  9
$MAXACTVP
 70
    48
  9
$PINSBASE
 10
0.0
 20
0.0
 30
0.0
  9
$PLIMCHECK
 70
     0
  9
$PEXTMIN
 10
1.000000000000000E+20
 20
1.000000000000000E+20
 30
1.000000000000000E+20
  9
$PEXTMAX
 10
-1.000000000000000E+20
 20
-1.000000000000000E+20
 30
-1.000000000000000E+20
  9
$PLIMMIN
 10
0.0
 20
0.0
  9
$PLIMMAX
 10
420.0
 20
297.0
  9
$UNITMODE
 70
     0
  9
$VISRETAIN
 70
     1
  9
$PLINEGEN
 70
     0
  9
$PSLTSCALE
 70
     1
  9
$TREEDEPTH
 70
  3020
  9
$PICKSTYLE
 70
     1
  9
$CMLSTYLE
  2
STANDARD
  9
$CMLJUST
 70
     0
  9
$CMLSCALE
 40
20.0
  9
$PROXYGRAPHICS
 70
     1
  9
$MEASUREMENT
 70
     1
  0
ENDSEC
  0
SECTION
  2
CLASSES
  0
CLASS
  1
ACDBDICTIONARYWDFLT
  2
AcDbDictionaryWithDefault
  3
AutoCAD 2000
 90
        0
280
     0
281
     0
  0
CLASS
  1
ACDBPLACEHOLDER
  2
AcDbPlaceHolder
  3
AutoCAD 2000
 90
        0
280
     0
281
     0
  0
CLASS
  1
LAYOUT
  2
AcDbLayout
  3
AutoCAD 2000
 90
        0
280
     0
281
     0
  0
CLASS
  1
DICTIONARYVAR
  2
AcDbDictionaryVar
  3
AutoCAD 2000
 90
        0
280
     0
281
     0
  0
CLASS
  1
LONG_TRANSACTION
  2
AcDbLongTransaction
  3
AutoCAD 2000
 90
        0
280
     0
281
     0
  0
CLASS
  1
LWPOLYLINE
  2
AcDbPolyline
  3
AutoCAD 2000
 90
        0
280
     0
281
     1
  0
CLASS
  1
HATCH
  2
AcDbHatch
  3
AutoCAD 2000
 90
        0
280
     0
281
     1
  0
CLASS
  1
XRECORD
  2
AcDbXrecord
  3
AutoCAD 2000
 90
        0
280
     0
281
     0
  0
CLASS
  1
LONG_TRANSACTION
  2
AcDbLongTransaction
  3
AutoCAD 2000
 90
        0
280
     0
281
     0
  0
CLASS
  1
LWPOLYLINE
  2
AcDbPolyline
  3
AutoCAD 2000
 90
        0
280
     0
281
     1
  0
CLASS
  1
HATCH
  2
AcDbHatch
  3
AutoCAD 2000
 90
        0
280
     0
281
     1
  0
CLASS
  1
XRECORD
  2
AcDbXrecord
  3
AutoCAD 2000
 90
        0
280
     0
281
     0
  0
ENDSEC
  0
SECTION
  2
TABLES
  0
TABLE
  2
VPORT
  5
8
330
0
100
AcDbSymbolTable
 70
     2
  0
VPORT
  5
273
330
8
100
AcDbSymbolTableRecord
100
AcDbViewportTableRecord
  2
*ACTIVE
 70
     0
 10
0.0
 20
0.0
 11
1.0
 21
1.0
 12
8.345647491998564
 22
11.66157536762949
 13
0.0
 23
0.0
 14
10.0
 24
10.0
 15
10.0
 25
10.0
 16
0.0
 26
0.0
 36
1.0
 17
0.0
 27
0.0
 37
0.0
 40
9.090710050661378
 41
1.674961119751166
 42
50.0
 43
0.0
 44
0.0
 50
0.0
 51
0.0
 71
     0
 72
  2000
 73
     1
 74
     3
 75
     0
 76
     0
 77
     0
 78
     0
  0
ENDTAB
  0
TABLE
  2
LTYPE
  5
5
330
0
100
AcDbSymbolTable
 70
     1
  0
LTYPE
  5
14
330
5
100
AcDbSymbolTableRecord
100
AcDbLinetypeTableRecord
  2
BYBLOCK
 70
     0
  3

 72
    65
 73
     0
 40
0.0
  0
LTYPE
  5
15
330
5
100
AcDbSymbolTableRecord
100
AcDbLinetypeTableRecord
  2
BYLAYER
 70
     0
  3

 72
    65
 73
     0
 40
0.0
  0
LTYPE
  5
16
330
5
100
AcDbSymbolTableRecord
100
AcDbLinetypeTableRecord
  2
CONTINUOUS
 70
     0
  3
Solid line
 72
    65
 73
     0
 40
0.0
  0
ENDTAB
  0
TABLE
  2
LAYER
  5
2
330
0
100
AcDbSymbolTable
 70
     1
  0
LAYER
  5
10
330
2
100
AcDbSymbolTableRecord
100
AcDbLayerTableRecord
  2
0
 70
     0
 62
     7
  6
CONTINUOUS
  0
ENDTAB
  0
TABLE
  2
STYLE
  5
3
330
0
100
AcDbSymbolTable
 70
     1
  0
STYLE
  5
11
330
3
100
AcDbSymbolTableRecord
100
AcDbTextStyleTableRecord
  2
STANDARD
 70
     0
 40
0.0
 41
1.0
 50
0.0
 71
     0
 42
2.5
  3
ARIAL.TTF
  4

1001
ACAD
1000
Arial
1071
       34
  0
ENDTAB
  0
TABLE
  2
VIEW
  5
6
330
0
100
AcDbSymbolTable
 70
     0
  0
ENDTAB
  0
TABLE
  2
UCS
  5
7
330
0
100
AcDbSymbolTable
 70
     0
  0
ENDTAB
  0
TABLE
  2
APPID
  5
9
330
0
100
AcDbSymbolTable
 70
     1
  0
APPID
  5
12
330
9
100
AcDbSymbolTableRecord
100
AcDbRegAppTableRecord
  2
ACAD
 70
     0
  0
ENDTAB
  0
TABLE
  2
DIMSTYLE
  5
A
330
0
100
AcDbSymbolTable
 70
     1
  0
DIMSTYLE
105
27
330
A
100
AcDbSymbolTableRecord
100
AcDbDimStyleTableRecord
  2
ISO-25
 70
     0
  3

  4

  5

  6

  7

 40
1.0
 41
2.5
 42
0.625
 43
3.75
 44
1.25
 45
0.0
 46
0.0
 47
0.0
 48
0.0
140
2.5
141
2.5
142
0.0
143
0.03937007874016
144
1.0
145
0.0
146
1.0
147
0.625
 71
     0
 72
     0
 73
     0
 74
     0
 75
     0
 76
     0
 77
     1
 78
     8
170
     0
171
     3
172
     1
173
     0
174
     0
175
     0
176
     0
177
     0
178
     0
270
     2
271
     2
272
     2
273
     2
274
     3
340
11
275
     0
280
     0
281
     0
282
     0
283
     0
284
     8
285
     0
286
     0
287
     3
288
     0
  0
ENDTAB
  0
TABLE
  2
BLOCK_RECORD
  5
1
330
0
100
AcDbSymbolTable
 70
     1
  0
BLOCK_RECORD
  5
1F
102
{ACAD_XDICTIONARY
360
236
102
}
330
1
100
AcDbSymbolTableRecord
100
AcDbBlockTableRecord
  2
*MODEL_SPACE
  0
BLOCK_RECORD
  5
1B
102
{ACAD_XDICTIONARY
360
238
102
}
330
1
100
AcDbSymbolTableRecord
100
AcDbBlockTableRecord
  2
*PAPER_SPACE
  0
ENDTAB
  0
ENDSEC
  0
SECTION
  2
BLOCKS
  0
BLOCK
  5
20
330
1F
100
AcDbEntity
  8
0
100
AcDbBlockBegin
  2
*MODEL_SPACE
 70
     0
 10
0.0
 20
0.0
 30
0.0
  3
*MODEL_SPACE
  1

  0
ENDBLK
  5
21
330
1F
100
AcDbEntity
  8
0
100
AcDbBlockEnd
  0
BLOCK
  5
1C
330
1B
100
AcDbEntity
 67
     1
  8
0
100
AcDbBlockBegin
  2
*PAPER_SPACE
 70
     0
 10
0.0
 20
0.0
 30
0.0
  3
*PAPER_SPACE
  1

  0
ENDBLK
  5
1D
330
1B
100
AcDbEntity
 67
     1
  8
0
100
AcDbBlockEnd
  0
ENDSEC
  0
SECTION
  2
ENTITIES
  0
ELLIPSE
  5
B5
330
1F
100
AcDbEntity
  8
0
  6
CONTINUOUS
 62
     7
100
AcDbEllipse
 10
3.945971037339766
 20
16.06137581496437
 30
0.0
 11
0.0707968544599194
 21
-0.0707968544599176
 31
0.0
210
0.0
220
0.0
230
1.0
 40
0.9987827659587212
 41
2.356803477777945
 42
3.926381829401621
  0
ELLIPSE
  5
B6
330
1F
100
AcDbEntity
  8
0
  6
CONTINUOUS
 62
     7
100
AcDbEllipse
 10
12.74584912848
 20
16.06137581496437
 30
0.0
 11
0.0707968544599194
 21
0.0707968544599176
 31
0.0
210
0.0
220
0.0
230
1.0
 40
0.9987827659587118
 41
5.498396131367782
 42
7.06797448299148
  0
ELLIPSE
  5
B7
330
1F
100
AcDbEntity
  8
0
  6
CONTINUOUS
 62
     7
100
AcDbEllipse
 10
3.945971037339766
 20
7.261497723824135
 30
0.0
 11
0.0707968544599194
 21
0.0707968544599194
 31
0.0
210
0.0
220
0.0
230
1.0
 40
0.9987827659587118
 41
2.356803477777961
 42
3.926381829401647
  0
ELLIPSE
  5
B8
330
1F
100
AcDbEntity
  8
0
  6
CONTINUOUS
 62
     7
100
AcDbEllipse
 10
12.74584912848
 20
7.261497723824135
 30
0.0
 11
0.0707968544599194
 21
-0.0707968544599185
 31
0.0
210
0.0
220
0.0
230
1.0
 40
0.9987827659587182
 41
5.49839613136773
 42
7.067974482991421
  0
LINE
  5
B9
330
1F
100
AcDbEntity
  8
0
  6
CONTINUOUS
 62
     7
100
AcDbLine
 10
12.74597100020797
 20
16.16143676939425
 30
0.0
 11
3.945849165611793
 21
16.16143676939425
 31
0.0
  0
LINE
  5
BA
330
1F
100
AcDbEntity
  8
0
  6
CONTINUOUS
 62
     7
100
AcDbLine
 10
3.845910082909883
 20
16.06149768669234
 30
0.0
 11
3.845910082909883
 21
7.261375852096161
 31
0.0
  0
LINE
  5
BB
330
1F
100
AcDbEntity
  8
0
  6
CONTINUOUS
 62
     7
100
AcDbLine
 10
12.84591008290988
 20
7.261375852096161
 30
0.0
 11
12.84591008290988
 21
16.06149768669234
 31
0.0
  0
LINE
  5
BC
330
1F
100
AcDbEntity
  8
0
  6
CONTINUOUS
 62
     7
100
AcDbLine
 10
3.945849165611793
 20
7.161436769394252
 30
0.0
 11
12.74597100020797
 21
7.161436769394252
 31
0.0
  0
CIRCLE
  5
BD
330
1F
100
AcDbEntity
  8
0
  6
CONTINUOUS
 62
     7
100
AcDbCircle
 10
8.345910082909883
 20
14.66143676939425
 30
0.0
 40
0.4500000000000011
  0
LWPOLYLINE
  5
C3
330
1F
100
AcDbEntity
  8
0
  6
CONTINUOUS
 62
     7
100
AcDbPolyline
 90
       13
 70
   128
 43
0.0
 10
12.22057542587726
 20
7.866917223863848
 10
12.21803222613519
 20
8.066869879975847
 10
12.20807292568965
 20
8.866688163246909
 10
12.19851063095194
 20
9.666524784653026
 10
12.18951943876133
 20
10.4663814251418
 10
12.18133954791039
 20
11.26626195818456
 10
12.17421115719169
 20
12.06617025725263
 10
12.17007776780927
 20
12.62122508737645
 10
12.16678460898301
 20
13.17630296966684
 10
12.1644147894964
 20
13.73139645390325
 10
12.16305141813292
 20
14.28649808986513
 10
12.16277760367608
 20
14.84160042733194
 10
12.16367645490936
 20
15.39669601608314
  0
ARC
  5
C5
330
1F
100
AcDbEntity
  8
0
  6
CONTINUOUS
 62
     7
100
AcDbCircle
 10
8.346296853721259
 20
-489.0417220290049
 30
0.0
 40
496.8417491974608
100
AcDbArc
 50
89.56249283279738
 51
90.43759637460668
  0
ELLIPSE
  5
D6
330
1F
100
AcDbEntity
  8
0
  6
CONTINUOUS
 62
     7
100
AcDbEllipse
 10
4.614919954250003
 20
15.39242689805413
 30
0.0
 11
0.2331823492044851
 21
-0.2331823492044851
 31
0.0
210
0.0
220
0.0
230
1.0
 40
0.6974565623330504
 41
2.532575734828999
 42
3.750609572350604
  0
LINE
  5
D7
330
1F
100
AcDbEntity
  8
0
  6
CONTINUOUS
 62
     7
100
AcDbLine
 10
4.330624319425049
 20
7.832224914615657
 30
0.0
 11
4.33062431942505
 21
15.49064862417284
 31
0.0
  0
ELLIPSE
  5
D8
330
1F
100
AcDbEntity
  8
0
  6
CONTINUOUS
 62
     7
100
AcDbEllipse
 10
4.614919954250001
 20
7.930446640734372
 30
0.0
 11
0.2331823492044843
 21
0.2331823492044843
 31
0.0
210
0.0
220
0.0
230
1.0
 40
0.6974565623330587
 41
2.532575734829007
 42
3.750609572350598
  0
LINE
  5
D9
330
1F
100
AcDbEntity
  8
0
  6
CONTINUOUS
 62
     7
100
AcDbLine
 10
12.17512193768848
 20
7.64615100590942
 30
0.0
 11
4.516698228131287
 21
7.646151005909421
 31
0.0
  0
ELLIPSE
  5
DA
330
1F
100
AcDbEntity
  8
0
  6
CONTINUOUS
 62
     7
100
AcDbEllipse
 10
12.07690021156976
 20
7.930446640734372
 30
0.0
 11
0.2331823492044851
 21
-0.233182349204486
 31
0.0
210
0.0
220
0.0
230
1.0
 40
0.6974565623330586
 41
5.674168388418808
 42
6.892202225940387
  0
LINE
  5
DB
330
1F
100
AcDbEntity
  8
0
  6
CONTINUOUS
 62
     7
100
AcDbLine
 10
12.36119584639471
 20
15.49064862417284
 30
0.0
 11
12.36119584639471
 21
7.832224914615657
 31
0.0
  0
ELLIPSE
  5
DC
330
1F
100
AcDbEntity
  8
0
  6
CONTINUOUS
 62
     7
100
AcDbEllipse
 10
12.07690021156976
 20
15.39242689805413
 30
0.0
 11
0.2331823492044851
 21
0.2331823492044833
 31
0.0
210
0.0
220
0.0
230
1.0
 40
0.6974565623330568
 41
5.674168388418815
 42
6.892202225940398
  0
LINE
  5
DD
330
1F
100
AcDbEntity
  8
0
  6
CONTINUOUS
 62
     7
100
AcDbLine
 10
4.516698228131288
 20
15.67672253287908
 30
0.0
 11
12.17512193768848
 21
15.67672253287908
 31
0.0
  0
LWPOLYLINE
  5
104
330
1F
100
AcDbEntity
  8
0
  6
CONTINUOUS
 62
     7
100
AcDbPolyline
 90
       13
 70
   128
 43
0.0
 10
4.528143710910399
 20
15.39669601608314
 10
4.529022896007234
 20
14.91069111922855
 10
4.529023457518247
 20
14.42468147368531
 10
4.528163659277441
 20
13.93867394421756
 10
4.52646176511882
 20
13.45267539558941
 10
4.52298359112376
 20
12.80461475545882
 10
4.518339145934866
 20
12.15657395294335
 10
4.512745075692389
 20
11.50855598142846
 10
4.50483966672081
 20
10.70945670880202
 10
4.496085778973617
 20
9.910382749752635
 10
4.486716440426907
 20
9.111322157851772
 10
4.47688194066013
 20
8.312277415025731
 10
4.471244739942505
 20
7.866917223863848
  0
ARC
  5
10F
330
1F
100
AcDbEntity
  8
0
  6
CONTINUOUS
 62
     7
100
AcDbCircle
 10
4.545759770166567
 20
7.859996131291959
 30
0.0
 40
0.0748357618500788
100
AcDbArc
 50
174.6934878656846
 51
274.5574439860879
  0
ARC
  5
110
330
1F
100
AcDbEntity
  8
0
  6
CONTINUOUS
 62
     7
100
AcDbCircle
 10
12.14617947133996
 20
7.860012353376171
 30
0.0
 40
0.0747224238994011
100
AcDbArc
 50
265.3440272760716
 51
5.357863184341131
  0
ARC
  5
111
330
1F
100
AcDbEntity
  8
0
  6
CONTINUOUS
 62
     7
100
AcDbCircle
 10
4.602742560277188
 20
15.40215551265829
 30
0.0
 40
0.074900197309699
100
AcDbArc
 50
84.4407584146781
 51
185.1413359339521
  0
LWPOLYLINE
  5
112
330
1F
100
AcDbEntity
  8
0
  6
CONTINUOUS
 62
     7
100
AcDbPolyline
 90
       18
 70
   128
 43
0.0
 10
12.08182165629301
 20
15.47670342180079
 10
11.88188138024434
 20
15.47384493646533
 10
11.08211625924332
 20
15.46252658295863
 10
10.3953709197975
 20
15.45304160070275
 10
9.708606257067227
 20
15.44413740258628
 10
9.433872516281992
 20
15.4408483065043
 10
9.159122859311901
 20
15.43789692654238
 10
8.884359397668596
 20
15.43551533597623
 10
8.60958424286372
 20
15.43393560808153
 10
8.334799506408911
 20
15.43338981613399
 10
8.06000132545334
 20
15.43402364272651
 10
7.785213631252914
 20
15.43567395173782
 10
7.510438003453407
 20
15.43810959582988
 10
7.235676021700595
 20
15.44109942766467
 10
6.960929265640255
 20
15.44441229990417
 10
6.273986787250435
 20
15.45334597054743
 10
5.587063099903859
 20
15.46284362217527
 10
4.609998509526751
 20
15.47670342180079
  0
ARC
  5
113
330
1F
100
AcDbEntity
  8
0
  6
CONTINUOUS
 62
     7
100
AcDbCircle
 10
12.08906167799737
 20
15.4021777505964
 30
0.0
 40
0.074876522239919
100
AcDbArc
 50
355.2078449455744
 51
95.54875957244584
  0
CIRCLE
  5
114
330
1F
100
AcDbEntity
  8
0
  6
CONTINUOUS
 62
     7
100
AcDbCircle
 10
8.345910082909883
 20
14.66143676939425
 30
0.0
 40
0.6514146625136697
  0
ENDSEC
  0
SECTION
  2
OBJECTS
  0
DICTIONARY
  5
C
330
0
100
AcDbDictionary
  3
ACAD_GROUP
350
D
  3
ACAD_LAYOUT
350
1A
  3
ACAD_MLINESTYLE
350
17
  3
ACAD_PLOTSETTINGS
350
19
  3
ACAD_PLOTSTYLENAME
350
E
  3
ACDBHEADERROUNDTRIPXREC
350
274
  3
ACDBVARIABLEDICTIONARY
350
26E
  0
DICTIONARY
  5
236
330
1F
100
AcDbDictionary
280
     1
  3
ACAD_LAYOUTSELFREF
360
296
  0
DICTIONARY
  5
238
330
1B
100
AcDbDictionary
280
     1
  3
ACAD_LAYOUTSELFREF
360
295
  0
DICTIONARY
  5
D
102
{ACAD_REACTORS
330
C
102
}
330
C
100
AcDbDictionary
  0
DICTIONARY
  5
1A
102
{ACAD_REACTORS
330
C
102
}
330
C
100
AcDbDictionary
  0
DICTIONARY
  5
17
102
{ACAD_REACTORS
330
C
102
}
330
C
100
AcDbDictionary
  3
STANDARD
350
18
  0
DICTIONARY
  5
19
102
{ACAD_REACTORS
330
C
102
}
330
C
100
AcDbDictionary
  0
ACDBDICTIONARYWDFLT
  5
E
102
{ACAD_REACTORS
330
C
102
}
330
C
100
AcDbDictionary
281
     1
  3
Normal
350
F
100
AcDbDictionaryWithDefault
340
F
  0
DICTIONARY
  5
274
102
{ACAD_REACTORS
330
C
102
}
330
C
100
AcDbDictionary
  3
CEPSNTYPE
350
27E
  3
DIMSTYLEDATA
350
282
  3
FINGERPRINTGUID
350
27F
  3
HYPERLINKBASE
350
277
  3
INSUNITS
350
27D
  3
LAYOUTDICT
350
279
  3
LWETCUNION
350
27C
  3
PLOTSETDICT
350
27A
  3
PLOTSTYLNAMDICT
350
27B
  3
PSVPSCALE
350
281
  3
PUCSBASE
350
285
  3
PUCSORGBACK
350
28B
  3
PUCSORGBOTTOM
350
287
  3
PUCSORGFRONT
350
28A
  3
PUCSORGLEFT
350
288
  3
PUCSORGRIGHT
350
289
  3
PUCSORGTOP
350
286
  3
PUCSORTHOREF
350
283
  3
PUCSORTHOVIEW
350
284
  3
STYLESHEET
350
278
  3
TSTACKALIGN
350
275
  3
TSTACKSIZE
350
276
  3
UCSBASE
350
28E
  3
UCSORGBACK
350
294
  3
UCSORGBOTTOM
350
290
  3
UCSORGFRONT
350
293
  3
UCSORGLEFT
350
291
  3
UCSORGRIGHT
350
292
  3
UCSORGTOP
350
28F
  3
UCSORTHOREF
350
28C
  3
UCSORTHOVIEW
350
28D
  3
VERSIONGUID
350
280
  0
DICTIONARY
  5
26E
102
{ACAD_REACTORS
330
C
102
}
330
C
100
AcDbDictionary
  3
DIMASSOC
350
26F
  0
XRECORD
  5
296
102
{ACAD_REACTORS
330
236
102
}
330
236
100
AcDbXrecord
340
1F
  0
XRECORD
  5
295
102
{ACAD_REACTORS
330
238
102
}
330
238
100
AcDbXrecord
340
1B
  0
MLINESTYLE
  5
18
102
{ACAD_REACTORS
330
17
102
}
330
17
100
AcDbMlineStyle
  2
STANDARD
 70
     0
  3

 62
   256
 51
90.0
 52
90.0
 71
     2
 49
0.5
 62
   256
  6
BYLAYER
 49
-0.5
 62
   256
  6
BYLAYER
  0
ACDBPLACEHOLDER
  5
F
102
{ACAD_REACTORS
330
E
102
}
330
E
100
AcDbPlaceHolder
280
     0
  0
XRECORD
  5
27E
102
{ACAD_REACTORS
330
274
102
}
330
274
100
AcDbXrecord
 90
        0
  0
XRECORD
  5
282
102
{ACAD_REACTORS
330
274
102
}
330
274
100
AcDbXrecord
1000
DSTYLE
1002
{
1070
   278
 70
    44
1002
}
  0
XRECORD
  5
27F
102
{ACAD_REACTORS
330
274
102
}
330
274
100
AcDbXrecord
  1
{7AF0F1FA-4D4A-4386-A283-D34DC056696E}
  0
XRECORD
  5
277
102
{ACAD_REACTORS
330
274
102
}
330
274
100
AcDbXrecord
  1

  0
XRECORD
  5
27D
102
{ACAD_REACTORS
330
274
102
}
330
274
100
AcDbXrecord
 90
        4
  0
XRECORD
  5
279
102
{ACAD_REACTORS
330
274
102
}
330
274
100
AcDbXrecord
340
1A
  0
XRECORD
  5
27C
102
{ACAD_REACTORS
330
274
102
}
330
274
100
AcDbXrecord
 90
    10269
  0
XRECORD
  5
27A
102
{ACAD_REACTORS
330
274
102
}
330
274
100
AcDbXrecord
340
19
  0
XRECORD
  5
27B
102
{ACAD_REACTORS
330
274
102
}
330
274
100
AcDbXrecord
340
E
  0
XRECORD
  5
281
102
{ACAD_REACTORS
330
274
102
}
330
274
100
AcDbXrecord
 40
0.0
  0
XRECORD
  5
285
102
{ACAD_REACTORS
330
274
102
}
330
274
100
AcDbXrecord
340
0
  0
XRECORD
  5
28B
102
{ACAD_REACTORS
330
274
102
}
330
274
100
AcDbXrecord
 10
0.0
 20
0.0
 30
0.0
  0
XRECORD
  5
287
102
{ACAD_REACTORS
330
274
102
}
330
274
100
AcDbXrecord
 10
0.0
 20
0.0
 30
0.0
  0
XRECORD
  5
28A
102
{ACAD_REACTORS
330
274
102
}
330
274
100
AcDbXrecord
 10
0.0
 20
0.0
 30
0.0
  0
XRECORD
  5
288
102
{ACAD_REACTORS
330
274
102
}
330
274
100
AcDbXrecord
 10
0.0
 20
0.0
 30
0.0
  0
XRECORD
  5
289
102
{ACAD_REACTORS
330
274
102
}
330
274
100
AcDbXrecord
 10
0.0
 20
0.0
 30
0.0
  0
XRECORD
  5
286
102
{ACAD_REACTORS
330
274
102
}
330
274
100
AcDbXrecord
 10
0.0
 20
0.0
 30
0.0
  0
XRECORD
  5
283
102
{ACAD_REACTORS
330
274
102
}
330
274
100
AcDbXrecord
340
0
  0
XRECORD
  5
284
102
{ACAD_REACTORS
330
274
102
}
330
274
100
AcDbXrecord
 70
     0
  0
XRECORD
  5
278
102
{ACAD_REACTORS
330
274
102
}
330
274
100
AcDbXrecord
  1

  0
XRECORD
  5
275
102
{ACAD_REACTORS
330
274
102
}
330
274
100
AcDbXrecord
 90
        1
  0
XRECORD
  5
276
102
{ACAD_REACTORS
330
274
102
}
330
274
100
AcDbXrecord
 90
       70
  0
XRECORD
  5
28E
102
{ACAD_REACTORS
330
274
102
}
330
274
100
AcDbXrecord
340
0
  0
XRECORD
  5
294
102
{ACAD_REACTORS
330
274
102
}
330
274
100
AcDbXrecord
 10
0.0
 20
0.0
 30
0.0
  0
XRECORD
  5
290
102
{ACAD_REACTORS
330
274
102
}
330
274
100
AcDbXrecord
 10
0.0
 20
0.0
 30
0.0
  0
XRECORD
  5
293
102
{ACAD_REACTORS
330
274
102
}
330
274
100
AcDbXrecord
 10
0.0
 20
0.0
 30
0.0
  0
XRECORD
  5
291
102
{ACAD_REACTORS
330
274
102
}
330
274
100
AcDbXrecord
 10
0.0
 20
0.0
 30
0.0
  0
XRECORD
  5
292
102
{ACAD_REACTORS
330
274
102
}
330
274
100
AcDbXrecord
 10
0.0
 20
0.0
 30
0.0
  0
XRECORD
  5
28F
102
{ACAD_REACTORS
330
274
102
}
330
274
100
AcDbXrecord
 10
0.0
 20
0.0
 30
0.0
  0
XRECORD
  5
28C
102
{ACAD_REACTORS
330
274
102
}
330
274
100
AcDbXrecord
340
0
  0
XRECORD
  5
28D
102
{ACAD_REACTORS
330
274
102
}
330
274
100
AcDbXrecord
 70
     0
  0
XRECORD
  5
280
102
{ACAD_REACTORS
330
274
102
}
330
274
100
AcDbXrecord
  1
{5668BF10-4C31-44CB-9108-502004C58D6D}
  0
DICTIONARYVAR
  5
26F
102
{ACAD_REACTORS
330
26E
102
}
330
26E
100
DictionaryVariables
280
     0
  1
1
  0
ENDSEC
  0
EOF
