  0
SECTION
  2
HEADER
  9
$ACADVER
  1
AC1014
  9
$ACADMAINTVER
 70
     9
  9
$DWGCODEPAGE
  3
ANSI_1250
  9
$INSBASE
 10
0.0
 20
0.0
 30
0.0
  9
$EXTMIN
 10
253.9336789256233
 20
304.7339550141332
 30
0.0
  9
$EXTMAX
 10
2058.075814549354
 20
2412.984133906435
 30
0.0
  9
$LIMMIN
 10
0.0
 20
0.0
  9
$LIMMAX
 10
420.0
 20
297.0
  9
$ORTHOMODE
 70
     1
  9
$REGENMODE
 70
     1
  9
$FILLMODE
 70
     1
  9
$QTEXTMODE
 70
     0
  9
$MIRRTEXT
 70
     1
  9
$DRAGMODE
 70
     2
  9
$LTSCALE
 40
2.0
  9
$OSMODE
 70
  3007
  9
$ATTMODE
 70
     1
  9
$TEXTSIZE
 40
35.0
  9
$TRACEWID
 40
1.0
  9
$TEXTSTYLE
  7
ISO35
  9
$CLAYER
  8
PEN50
  9
$CELTYPE
  6
BYLAYER
  9
$CECOLOR
 62
   256
  9
$CELTSCALE
 40
1.0
  9
$DELOBJ
 70
     1
  9
$DISPSILH
 70
     0
  9
$DIMSCALE
 40
10.0
  9
$DIMASZ
 40
3.5
  9
$DIMEXO
 40
0.875
  9
$DIMDLI
 40
5.25
  9
$DIMRND
 40
0.0
  9
$DIMDLE
 40
0.0
  9
$DIMEXE
 40
1.75
  9
$DIMTP
 40
0.0
  9
$DIMTM
 40
0.0
  9
$DIMTXT
 40
3.5
  9
$DIMCEN
 40
0.0
  9
$DIMTSZ
 40
0.0
  9
$DIMTOL
 70
     0
  9
$DIMLIM
 70
     0
  9
$DIMTIH
 70
     0
  9
$DIMTOH
 70
     0
  9
$DIMSE1
 70
     0
  9
$DIMSE2
 70
     0
  9
$DIMTAD
 70
     1
  9
$DIMZIN
 70
     8
  9
$DIMBLK
  1

  9
$DIMASO
 70
     1
  9
$DIMSHO
 70
     1
  9
$DIMPOST
  1

  9
$DIMAPOST
  1

  9
$DIMALT
 70
     0
  9
$DIMALTD
 70
     4
  9
$DIMALTF
 40
0.0394
  9
$DIMLFAC
 40
0.1
  9
$DIMTOFL
 70
     1
  9
$DIMTVP
 40
0.0
  9
$DIMTIX
 70
     0
  9
$DIMSOXD
 70
     0
  9
$DIMSAH
 70
     0
  9
$DIMBLK1
  1

  9
$DIMBLK2
  1

  9
$DIMSTYLE
  2
ISO-35
  9
$DIMCLRD
 70
   256
  9
$DIMCLRE
 70
   256
  9
$DIMCLRT
 70
     2
  9
$DIMTFAC
 40
1.0
  9
$DIMGAP
 40
1.0
  9
$DIMJUST
 70
     0
  9
$DIMSD1
 70
     0
  9
$DIMSD2
 70
     0
  9
$DIMTOLJ
 70
     1
  9
$DIMTZIN
 70
     0
  9
$DIMALTZ
 70
     0
  9
$DIMALTTZ
 70
     0
  9
$DIMFIT
 70
     3
  9
$DIMUPT
 70
     0
  9
$DIMUNIT
 70
     8
  9
$DIMDEC
 70
     4
  9
$DIMTDEC
 70
     4
  9
$DIMALTU
 70
     8
  9
$DIMALTTD
 70
     4
  9
$DIMTXSTY
  7
ISO35
  9
$DIMAUNIT
 70
     0
  9
$LUNITS
 70
     2
  9
$LUPREC
 70
     2
  9
$SKETCHINC
 40
1.0
  9
$FILLETRAD
 40
10.0
  9
$AUNITS
 70
     0
  9
$AUPREC
 70
     0
  9
$MENU
  1
.
  9
$ELEVATION
 40
0.0
  9
$PELEVATION
 40
0.0
  9
$THICKNESS
 40
0.0
  9
$LIMCHECK
 70
     0
  9
$BLIPMODE
 70
     0
  9
$CHAMFERA
 40
10.0
  9
$CHAMFERB
 40
10.0
  9
$CHAMFERC
 40
20.0
  9
$CHAMFERD
 40
0.0
  9
$SKPOLY
 70
     1
  9
$TDCREATE
 40
2450903.590498611
  9
$TDUPDATE
 40
2453966.364384213
  9
$TDINDWG
 40
0.9374642477
  9
$TDUSRTIMER
 40
0.9374640625
  9
$USRTIMER
 70
     1
  9
$ANGBASE
 50
0.0
  9
$ANGDIR
 70
     0
  9
$PDMODE
 70
     0
  9
$PDSIZE
 40
0.0
  9
$PLINEWID
 40
0.0
  9
$COORDS
 70
     2
  9
$SPLFRAME
 70
     0
  9
$SPLINETYPE
 70
     6
  9
$SPLINESEGS
 70
     8
  9
$ATTDIA
 70
     0
  9
$ATTREQ
 70
     1
  9
$HANDLING
 70
 22529
  9
$HANDSEED
  5
372B
  9
$SURFTAB1
 70
     6
  9
$SURFTAB2
 70
     6
  9
$SURFTYPE
 70
     6
  9
$SURFU
 70
     6
  9
$SURFV
 70
     6
  9
$UCSNAME
  2

  9
$UCSORG
 10
0.0
 20
0.0
 30
0.0
  9
$UCSXDIR
 10
1.0
 20
0.0
 30
0.0
  9
$UCSYDIR
 10
0.0
 20
1.0
 30
0.0
  9
$PUCSNAME
  2

  9
$PUCSORG
 10
0.0
 20
0.0
 30
0.0
  9
$PUCSXDIR
 10
1.0
 20
0.0
 30
0.0
  9
$PUCSYDIR
 10
0.0
 20
1.0
 30
0.0
  9
$USERI1
 70
     0
  9
$USERI2
 70
     0
  9
$USERI3
 70
     0
  9
$USERI4
 70
     0
  9
$USERI5
 70
     0
  9
$USERR1
 40
0.0
  9
$USERR2
 40
0.0
  9
$USERR3
 40
0.0
  9
$USERR4
 40
0.0
  9
$USERR5
 40
0.0
  9
$WORLDVIEW
 70
     1
  9
$SHADEDGE
 70
     3
  9
$SHADEDIF
 70
    70
  9
$TILEMODE
 70
     1
  9
$MAXACTVP
 70
    48
  9
$PINSBASE
 10
0.0
 20
0.0
 30
0.0
  9
$PLIMCHECK
 70
     0
  9
$PEXTMIN
 10
20.0
 20
10.0
 30
0.0
  9
$PEXTMAX
 10
420.4877660024848
 20
287.0
 30
0.0
  9
$PLIMMIN
 10
12.96902756379516
 20
2.970706149823258
  9
$PLIMMAX
 10
427.5666300731333
 20
296.1145590034721
  9
$UNITMODE
 70
     0
  9
$VISRETAIN
 70
     1
  9
$PLINEGEN
 70
     0
  9
$PSLTSCALE
 70
     0
  9
$TREEDEPTH
 70
  3020
  9
$PICKSTYLE
 70
     1
  9
$CMLSTYLE
  2
STANDARD
  9
$CMLJUST
 70
     0
  9
$CMLSCALE
 40
1.0
  9
$PROXYGRAPHICS
 70
     1
  9
$MEASUREMENT
 70
     1
  0
ENDSEC
  0
SECTION
  2
CLASSES
  0
CLASS
  1
DICTIONARYVAR
  2
AcDbDictionaryVar
  3
AutoCAD 2000
 90
        0
280
     0
281
     0
  0
CLASS
  1
LWPOLYLINE
  2
AcDbPolyline
  3
AutoCAD 2000
 90
        0
280
     0
281
     1
  0
CLASS
  1
HATCH
  2
AcDbHatch
  3
AutoCAD 2000
 90
        0
280
     0
281
     1
  0
CLASS
  1
ACDBDICTIONARYWDFLT
  2
AcDbDictionaryWithDefault
  3
AutoCAD 2000
 90
        0
280
     0
281
     0
  0
CLASS
  1
ACDBPLACEHOLDER
  2
AcDbPlaceHolder
  3
AutoCAD 2000
 90
        0
280
     0
281
     0
  0
CLASS
  1
LAYOUT
  2
AcDbLayout
  3
AutoCAD 2000
 90
        0
280
     0
281
     0
  0
CLASS
  1
LONG_TRANSACTION
  2
AcDbLongTransaction
  3
AutoCAD 2000
 90
        0
280
     0
281
     0
  0
CLASS
  1
LWPOLYLINE
  2
AcDbPolyline
  3
AutoCAD 2000
 90
        0
280
     0
281
     1
  0
CLASS
  1
HATCH
  2
AcDbHatch
  3
AutoCAD 2000
 90
        0
280
     0
281
     1
  0
CLASS
  1
XRECORD
  2
AcDbXrecord
  3
AutoCAD 2000
 90
        0
280
     0
281
     0
  0
CLASS
  1
LONG_TRANSACTION
  2
AcDbLongTransaction
  3
AutoCAD 2000
 90
        0
280
     0
281
     0
  0
CLASS
  1
LWPOLYLINE
  2
AcDbPolyline
  3
AutoCAD 2000
 90
        0
280
     0
281
     1
  0
CLASS
  1
HATCH
  2
AcDbHatch
  3
AutoCAD 2000
 90
        0
280
     0
281
     1
  0
CLASS
  1
XRECORD
  2
AcDbXrecord
  3
AutoCAD 2000
 90
        0
280
     0
281
     0
  0
CLASS
  1
LONG_TRANSACTION
  2
AcDbLongTransaction
  3
AutoCAD 2000
 90
        0
280
     0
281
     0
  0
CLASS
  1
LWPOLYLINE
  2
AcDbPolyline
  3
AutoCAD 2000
 90
        0
280
     0
281
     1
  0
CLASS
  1
HATCH
  2
AcDbHatch
  3
AutoCAD 2000
 90
        0
280
     0
281
     1
  0
CLASS
  1
XRECORD
  2
AcDbXrecord
  3
AutoCAD 2000
 90
        0
280
     0
281
     0
  0
CLASS
  1
LONG_TRANSACTION
  2
AcDbLongTransaction
  3
AutoCAD 2000
 90
        0
280
     0
281
     0
  0
CLASS
  1
LWPOLYLINE
  2
AcDbPolyline
  3
AutoCAD 2000
 90
        0
280
     0
281
     1
  0
CLASS
  1
HATCH
  2
AcDbHatch
  3
AutoCAD 2000
 90
        0
280
     0
281
     1
  0
CLASS
  1
XRECORD
  2
AcDbXrecord
  3
AutoCAD 2000
 90
        0
280
     0
281
     0
  0
CLASS
  1
LONG_TRANSACTION
  2
AcDbLongTransaction
  3
AutoCAD 2000
 90
        0
280
     0
281
     0
  0
CLASS
  1
LWPOLYLINE
  2
AcDbPolyline
  3
AutoCAD 2000
 90
        0
280
     0
281
     1
  0
CLASS
  1
HATCH
  2
AcDbHatch
  3
AutoCAD 2000
 90
        0
280
     0
281
     1
  0
CLASS
  1
XRECORD
  2
AcDbXrecord
  3
AutoCAD 2000
 90
        0
280
     0
281
     0
  0
CLASS
  1
LONG_TRANSACTION
  2
AcDbLongTransaction
  3
AutoCAD 2000
 90
        0
280
     0
281
     0
  0
CLASS
  1
LWPOLYLINE
  2
AcDbPolyline
  3
AutoCAD 2000
 90
        0
280
     0
281
     1
  0
CLASS
  1
HATCH
  2
AcDbHatch
  3
AutoCAD 2000
 90
        0
280
     0
281
     1
  0
CLASS
  1
XRECORD
  2
AcDbXrecord
  3
AutoCAD 2000
 90
        0
280
     0
281
     0
  0
CLASS
  1
LONG_TRANSACTION
  2
AcDbLongTransaction
  3
AutoCAD 2000
 90
        0
280
     0
281
     0
  0
CLASS
  1
LWPOLYLINE
  2
AcDbPolyline
  3
AutoCAD 2000
 90
        0
280
     0
281
     1
  0
CLASS
  1
HATCH
  2
AcDbHatch
  3
AutoCAD 2000
 90
        0
280
     0
281
     1
  0
CLASS
  1
XRECORD
  2
AcDbXrecord
  3
AutoCAD 2000
 90
        0
280
     0
281
     0
  0
CLASS
  1
LONG_TRANSACTION
  2
AcDbLongTransaction
  3
AutoCAD 2000
 90
        0
280
     0
281
     0
  0
CLASS
  1
LWPOLYLINE
  2
AcDbPolyline
  3
AutoCAD 2000
 90
        0
280
     0
281
     1
  0
CLASS
  1
HATCH
  2
AcDbHatch
  3
AutoCAD 2000
 90
        0
280
     0
281
     1
  0
CLASS
  1
XRECORD
  2
AcDbXrecord
  3
AutoCAD 2000
 90
        0
280
     0
281
     0
  0
CLASS
  1
LONG_TRANSACTION
  2
AcDbLongTransaction
  3
AutoCAD 2000
 90
        0
280
     0
281
     0
  0
CLASS
  1
LWPOLYLINE
  2
AcDbPolyline
  3
AutoCAD 2000
 90
        0
280
     0
281
     1
  0
CLASS
  1
HATCH
  2
AcDbHatch
  3
AutoCAD 2000
 90
        0
280
     0
281
     1
  0
CLASS
  1
XRECORD
  2
AcDbXrecord
  3
AutoCAD 2000
 90
        0
280
     0
281
     0
  0
CLASS
  1
LONG_TRANSACTION
  2
AcDbLongTransaction
  3
AutoCAD 2000
 90
        0
280
     0
281
     0
  0
CLASS
  1
LWPOLYLINE
  2
AcDbPolyline
  3
AutoCAD 2000
 90
        0
280
     0
281
     1
  0
CLASS
  1
HATCH
  2
AcDbHatch
  3
AutoCAD 2000
 90
        0
280
     0
281
     1
  0
CLASS
  1
XRECORD
  2
AcDbXrecord
  3
AutoCAD 2000
 90
        0
280
     0
281
     0
  0
CLASS
  1
LONG_TRANSACTION
  2
AcDbLongTransaction
  3
AutoCAD 2000
 90
        0
280
     0
281
     0
  0
CLASS
  1
LWPOLYLINE
  2
AcDbPolyline
  3
AutoCAD 2000
 90
        0
280
     0
281
     1
  0
CLASS
  1
HATCH
  2
AcDbHatch
  3
AutoCAD 2000
 90
        0
280
     0
281
     1
  0
CLASS
  1
XRECORD
  2
AcDbXrecord
  3
AutoCAD 2000
 90
        0
280
     0
281
     0
  0
CLASS
  1
LONG_TRANSACTION
  2
AcDbLongTransaction
  3
AutoCAD 2000
 90
        0
280
     0
281
     0
  0
CLASS
  1
LWPOLYLINE
  2
AcDbPolyline
  3
AutoCAD 2000
 90
        0
280
     0
281
     1
  0
CLASS
  1
HATCH
  2
AcDbHatch
  3
AutoCAD 2000
 90
        0
280
     0
281
     1
  0
CLASS
  1
XRECORD
  2
AcDbXrecord
  3
AutoCAD 2000
 90
        0
280
     0
281
     0
  0
CLASS
  1
LONG_TRANSACTION
  2
AcDbLongTransaction
  3
AutoCAD 2000
 90
        0
280
     0
281
     0
  0
CLASS
  1
LWPOLYLINE
  2
AcDbPolyline
  3
AutoCAD 2000
 90
        0
280
     0
281
     1
  0
CLASS
  1
HATCH
  2
AcDbHatch
  3
AutoCAD 2000
 90
        0
280
     0
281
     1
  0
CLASS
  1
XRECORD
  2
AcDbXrecord
  3
AutoCAD 2000
 90
        0
280
     0
281
     0
  0
CLASS
  1
LONG_TRANSACTION
  2
AcDbLongTransaction
  3
AutoCAD 2000
 90
        0
280
     0
281
     0
  0
CLASS
  1
LWPOLYLINE
  2
AcDbPolyline
  3
AutoCAD 2000
 90
        0
280
     0
281
     1
  0
CLASS
  1
HATCH
  2
AcDbHatch
  3
AutoCAD 2000
 90
        0
280
     0
281
     1
  0
CLASS
  1
XRECORD
  2
AcDbXrecord
  3
AutoCAD 2000
 90
        0
280
     0
281
     0
  0
CLASS
  1
LONG_TRANSACTION
  2
AcDbLongTransaction
  3
AutoCAD 2000
 90
        0
280
     0
281
     0
  0
CLASS
  1
LWPOLYLINE
  2
AcDbPolyline
  3
AutoCAD 2000
 90
        0
280
     0
281
     1
  0
CLASS
  1
HATCH
  2
AcDbHatch
  3
AutoCAD 2000
 90
        0
280
     0
281
     1
  0
CLASS
  1
XRECORD
  2
AcDbXrecord
  3
AutoCAD 2000
 90
        0
280
     0
281
     0
  0
CLASS
  1
LONG_TRANSACTION
  2
AcDbLongTransaction
  3
AutoCAD 2000
 90
        0
280
     0
281
     0
  0
CLASS
  1
LWPOLYLINE
  2
AcDbPolyline
  3
AutoCAD 2000
 90
        0
280
     0
281
     1
  0
CLASS
  1
HATCH
  2
AcDbHatch
  3
AutoCAD 2000
 90
        0
280
     0
281
     1
  0
CLASS
  1
XRECORD
  2
AcDbXrecord
  3
AutoCAD 2000
 90
        0
280
     0
281
     0
  0
CLASS
  1
LONG_TRANSACTION
  2
AcDbLongTransaction
  3
AutoCAD 2000
 90
        0
280
     0
281
     0
  0
CLASS
  1
LWPOLYLINE
  2
AcDbPolyline
  3
AutoCAD 2000
 90
        0
280
     0
281
     1
  0
CLASS
  1
HATCH
  2
AcDbHatch
  3
AutoCAD 2000
 90
        0
280
     0
281
     1
  0
CLASS
  1
XRECORD
  2
AcDbXrecord
  3
AutoCAD 2000
 90
        0
280
     0
281
     0
  0
CLASS
  1
LONG_TRANSACTION
  2
AcDbLongTransaction
  3
AutoCAD 2000
 90
        0
280
     0
281
     0
  0
CLASS
  1
LWPOLYLINE
  2
AcDbPolyline
  3
AutoCAD 2000
 90
        0
280
     0
281
     1
  0
CLASS
  1
HATCH
  2
AcDbHatch
  3
AutoCAD 2000
 90
        0
280
     0
281
     1
  0
CLASS
  1
XRECORD
  2
AcDbXrecord
  3
AutoCAD 2000
 90
        0
280
     0
281
     0
  0
CLASS
  1
LONG_TRANSACTION
  2
AcDbLongTransaction
  3
AutoCAD 2000
 90
        0
280
     0
281
     0
  0
CLASS
  1
LWPOLYLINE
  2
AcDbPolyline
  3
AutoCAD 2000
 90
        0
280
     0
281
     1
  0
CLASS
  1
HATCH
  2
AcDbHatch
  3
AutoCAD 2000
 90
        0
280
     0
281
     1
  0
CLASS
  1
XRECORD
  2
AcDbXrecord
  3
AutoCAD 2000
 90
        0
280
     0
281
     0
  0
CLASS
  1
LONG_TRANSACTION
  2
AcDbLongTransaction
  3
AutoCAD 2000
 90
        0
280
     0
281
     0
  0
CLASS
  1
LWPOLYLINE
  2
AcDbPolyline
  3
AutoCAD 2000
 90
        0
280
     0
281
     1
  0
CLASS
  1
HATCH
  2
AcDbHatch
  3
AutoCAD 2000
 90
        0
280
     0
281
     1
  0
CLASS
  1
XRECORD
  2
AcDbXrecord
  3
AutoCAD 2000
 90
        0
280
     0
281
     0
  0
CLASS
  1
LONG_TRANSACTION
  2
AcDbLongTransaction
  3
AutoCAD 2000
 90
        0
280
     0
281
     0
  0
CLASS
  1
LWPOLYLINE
  2
AcDbPolyline
  3
AutoCAD 2000
 90
        0
280
     0
281
     1
  0
CLASS
  1
HATCH
  2
AcDbHatch
  3
AutoCAD 2000
 90
        0
280
     0
281
     1
  0
CLASS
  1
XRECORD
  2
AcDbXrecord
  3
AutoCAD 2000
 90
        0
280
     0
281
     0
  0
CLASS
  1
LONG_TRANSACTION
  2
AcDbLongTransaction
  3
AutoCAD 2000
 90
        0
280
     0
281
     0
  0
CLASS
  1
LWPOLYLINE
  2
AcDbPolyline
  3
AutoCAD 2000
 90
        0
280
     0
281
     1
  0
CLASS
  1
HATCH
  2
AcDbHatch
  3
AutoCAD 2000
 90
        0
280
     0
281
     1
  0
CLASS
  1
XRECORD
  2
AcDbXrecord
  3
AutoCAD 2000
 90
        0
280
     0
281
     0
  0
CLASS
  1
LONG_TRANSACTION
  2
AcDbLongTransaction
  3
AutoCAD 2000
 90
        0
280
     0
281
     0
  0
CLASS
  1
LWPOLYLINE
  2
AcDbPolyline
  3
AutoCAD 2000
 90
        0
280
     0
281
     1
  0
CLASS
  1
HATCH
  2
AcDbHatch
  3
AutoCAD 2000
 90
        0
280
     0
281
     1
  0
CLASS
  1
XRECORD
  2
AcDbXrecord
  3
AutoCAD 2000
 90
        0
280
     0
281
     0
  0
CLASS
  1
LONG_TRANSACTION
  2
AcDbLongTransaction
  3
AutoCAD 2000
 90
        0
280
     0
281
     0
  0
CLASS
  1
LWPOLYLINE
  2
AcDbPolyline
  3
AutoCAD 2000
 90
        0
280
     0
281
     1
  0
CLASS
  1
HATCH
  2
AcDbHatch
  3
AutoCAD 2000
 90
        0
280
     0
281
     1
  0
CLASS
  1
XRECORD
  2
AcDbXrecord
  3
AutoCAD 2000
 90
        0
280
     0
281
     0
  0
CLASS
  1
LONG_TRANSACTION
  2
AcDbLongTransaction
  3
AutoCAD 2000
 90
        0
280
     0
281
     0
  0
CLASS
  1
LWPOLYLINE
  2
AcDbPolyline
  3
AutoCAD 2000
 90
        0
280
     0
281
     1
  0
CLASS
  1
HATCH
  2
AcDbHatch
  3
AutoCAD 2000
 90
        0
280
     0
281
     1
  0
CLASS
  1
XRECORD
  2
AcDbXrecord
  3
AutoCAD 2000
 90
        0
280
     0
281
     0
  0
CLASS
  1
LONG_TRANSACTION
  2
AcDbLongTransaction
  3
AutoCAD 2000
 90
        0
280
     0
281
     0
  0
CLASS
  1
LWPOLYLINE
  2
AcDbPolyline
  3
AutoCAD 2000
 90
        0
280
     0
281
     1
  0
CLASS
  1
HATCH
  2
AcDbHatch
  3
AutoCAD 2000
 90
        0
280
     0
281
     1
  0
CLASS
  1
XRECORD
  2
AcDbXrecord
  3
AutoCAD 2000
 90
        0
280
     0
281
     0
  0
CLASS
  1
LONG_TRANSACTION
  2
AcDbLongTransaction
  3
AutoCAD 2000
 90
        0
280
     0
281
     0
  0
CLASS
  1
LWPOLYLINE
  2
AcDbPolyline
  3
AutoCAD 2000
 90
        0
280
     0
281
     1
  0
CLASS
  1
HATCH
  2
AcDbHatch
  3
AutoCAD 2000
 90
        0
280
     0
281
     1
  0
CLASS
  1
XRECORD
  2
AcDbXrecord
  3
AutoCAD 2000
 90
        0
280
     0
281
     0
  0
CLASS
  1
LONG_TRANSACTION
  2
AcDbLongTransaction
  3
AutoCAD 2000
 90
        0
280
     0
281
     0
  0
CLASS
  1
LWPOLYLINE
  2
AcDbPolyline
  3
AutoCAD 2000
 90
        0
280
     0
281
     1
  0
CLASS
  1
HATCH
  2
AcDbHatch
  3
AutoCAD 2000
 90
        0
280
     0
281
     1
  0
CLASS
  1
XRECORD
  2
AcDbXrecord
  3
AutoCAD 2000
 90
        0
280
     0
281
     0
  0
CLASS
  1
LONG_TRANSACTION
  2
AcDbLongTransaction
  3
AutoCAD 2000
 90
        0
280
     0
281
     0
  0
CLASS
  1
LWPOLYLINE
  2
AcDbPolyline
  3
AutoCAD 2000
 90
        0
280
     0
281
     1
  0
CLASS
  1
HATCH
  2
AcDbHatch
  3
AutoCAD 2000
 90
        0
280
     0
281
     1
  0
CLASS
  1
XRECORD
  2
AcDbXrecord
  3
AutoCAD 2000
 90
        0
280
     0
281
     0
  0
ENDSEC
  0
SECTION
  2
TABLES
  0
TABLE
  2
VPORT
  5
8
330
0
100
AcDbSymbolTable
 70
     2
  0
VPORT
  5
3707
330
8
100
AcDbSymbolTableRecord
100
AcDbViewportTableRecord
  2
*ACTIVE
 70
     0
 10
0.0
 20
0.0
 11
1.0
 21
1.0
 12
1156.127052762078
 22
1358.861976645688
 13
0.0
 23
0.0
 14
1.0
 24
1.0
 15
10.0
 25
10.0
 16
0.0
 26
0.0
 36
1.0
 17
0.0
 27
0.0
 37
0.0
 40
2128.353244942303
 41
1.674961119751166
 42
50.0
 43
0.0
 44
0.0
 50
0.0
 51
0.0
 71
     0
 72
   100
 73
     1
 74
     1
 75
     0
 76
     0
 77
     0
 78
     0
  0
ENDTAB
  0
TABLE
  2
LTYPE
  5
5
330
0
100
AcDbSymbolTable
 70
     2
  0
LTYPE
  5
14
330
5
100
AcDbSymbolTableRecord
100
AcDbLinetypeTableRecord
  2
BYBLOCK
 70
     0
  3

 72
    65
 73
     0
 40
0.0
  0
LTYPE
  5
15
330
5
100
AcDbSymbolTableRecord
100
AcDbLinetypeTableRecord
  2
BYLAYER
 70
     0
  3

 72
    65
 73
     0
 40
0.0
  0
LTYPE
  5
16
330
5
100
AcDbSymbolTableRecord
100
AcDbLinetypeTableRecord
  2
CONTINUOUS
 70
     0
  3
Solid line
 72
    65
 73
     0
 40
0.0
  0
LTYPE
  5
94
330
5
100
AcDbSymbolTableRecord
100
AcDbLinetypeTableRecord
  2
DASHED
 70
     0
  3
Dashed __ __ __ __ __ __ __ __ __ __ __ __ __ _
 72
    65
 73
     2
 40
19.04999999999997
 49
12.7
 74
     0
 49
-6.349999999999997
 74
     0
  0
ENDTAB
  0
TABLE
  2
LAYER
  5
2
102
{ACAD_XDICTIONARY
360
31C6
102
}
330
0
100
AcDbSymbolTable
 70
     6
  0
LAYER
  5
F
330
2
100
AcDbSymbolTableRecord
100
AcDbLayerTableRecord
  2
0
 70
     0
 62
     7
  6
CONTINUOUS
  0
LAYER
  5
7D
330
2
100
AcDbSymbolTableRecord
100
AcDbLayerTableRecord
  2
PEN50
 70
     0
 62
     7
  6
CONTINUOUS
  0
LAYER
  5
80
330
2
100
AcDbSymbolTableRecord
100
AcDbLayerTableRecord
  2
MAATLIJN
 70
     0
 62
     3
  6
CONTINUOUS
  0
LAYER
  5
86
330
2
100
AcDbSymbolTableRecord
100
AcDbLayerTableRecord
  2
GEBROKENLIJN
 70
     0
 62
     2
  6
DASHED
  0
LAYER
  5
C3
330
2
100
AcDbSymbolTableRecord
100
AcDbLayerTableRecord
  2
KADER
 70
     0
 62
     5
  6
CONTINUOUS
  0
LAYER
  5
CB
330
2
100
AcDbSymbolTableRecord
100
AcDbLayerTableRecord
  2
VIEWPORT
 70
     0
 62
     7
  6
CONTINUOUS
  0
ENDTAB
  0
TABLE
  2
STYLE
  5
3
330
0
100
AcDbSymbolTable
 70
     2
  0
STYLE
  5
10
330
3
100
AcDbSymbolTableRecord
100
AcDbTextStyleTableRecord
  2
STANDARD
 70
     0
 40
3.5
 41
1.0
 50
0.0
 71
     0
 42
2.5
  3
isocp.shx
  4

  0
STYLE
  5
E7
330
3
100
AcDbSymbolTableRecord
100
AcDbTextStyleTableRecord
  2
ISO35
 70
     0
 40
35.0
 41
0.85
 50
0.0
 71
     0
 42
35.0
  3
romans.shx
  4

  0
ENDTAB
  0
TABLE
  2
VIEW
  5
6
330
0
100
AcDbSymbolTable
 70
     0
  0
ENDTAB
  0
TABLE
  2
UCS
  5
7
330
0
100
AcDbSymbolTable
 70
     0
  0
ENDTAB
  0
TABLE
  2
APPID
  5
9
330
0
100
AcDbSymbolTable
 70
     4
  0
APPID
  5
11
330
9
100
AcDbSymbolTableRecord
100
AcDbRegAppTableRecord
  2
ACAD
 70
     0
  0
APPID
  5
C23
330
9
100
AcDbSymbolTableRecord
100
AcDbRegAppTableRecord
  2
AVE_RENDER
 70
     0
  0
APPID
  5
C24
330
9
100
AcDbSymbolTableRecord
100
AcDbRegAppTableRecord
  2
AVE_MATERIAL
 70
     0
  0
APPID
  5
23F7
330
9
100
AcDbSymbolTableRecord
100
AcDbRegAppTableRecord
  2
CONTENTBLOCKICON
 70
     0
  0
ENDTAB
  0
TABLE
  2
DIMSTYLE
  5
A
330
0
100
AcDbSymbolTable
 70
     1
  0
DIMSTYLE
105
25
330
A
100
AcDbSymbolTableRecord
100
AcDbDimStyleTableRecord
  2
ISO-35
 70
     0
  3

  4

  5

  6

  7

 40
10.0
 41
3.5
 42
0.875
 43
5.25
 44
1.75
 45
0.0
 46
0.0
 47
0.0
 48
0.0
140
3.5
141
0.0
142
0.0
143
0.0394
144
0.1
145
0.0
146
1.0
147
1.0
 71
     0
 72
     0
 73
     0
 74
     0
 75
     0
 76
     0
 77
     1
 78
     8
170
     0
171
     4
172
     1
173
     0
174
     0
175
     0
176
   256
177
   256
178
     2
270
     8
271
     4
272
     4
273
     8
274
     4
340
E7
275
     0
280
     0
281
     0
282
     0
283
     1
284
     0
285
     0
286
     0
287
     3
288
     0
  0
ENDTAB
  0
TABLE
  2
BLOCK_RECORD
  5
1
330
0
100
AcDbSymbolTable
 70
     1
  0
BLOCK_RECORD
  5
1A
102
{ACAD_XDICTIONARY
360
23DB
102
}
330
1
100
AcDbSymbolTableRecord
100
AcDbBlockTableRecord
  2
*MODEL_SPACE
  0
BLOCK_RECORD
  5
17
102
{ACAD_XDICTIONARY
360
23D9
102
}
330
1
100
AcDbSymbolTableRecord
100
AcDbBlockTableRecord
  2
*PAPER_SPACE
  0
BLOCK_RECORD
  5
915
330
1
100
AcDbSymbolTableRecord
100
AcDbBlockTableRecord
  2
LAGEN
  0
ENDTAB
  0
ENDSEC
  0
SECTION
  2
BLOCKS
  0
BLOCK
  5
1B
330
1A
100
AcDbEntity
  8
0
100
AcDbBlockBegin
  2
*MODEL_SPACE
 70
     0
 10
0.0
 20
0.0
 30
0.0
  3
*MODEL_SPACE
  1

  0
ENDBLK
  5
1C
330
1A
100
AcDbEntity
  8
0
100
AcDbBlockEnd
  0
BLOCK
  5
18
330
17
100
AcDbEntity
 67
     1
  8
0
100
AcDbBlockBegin
  2
*PAPER_SPACE
 70
     0
 10
0.0
 20
0.0
 30
0.0
  3
*PAPER_SPACE
  1

  0
ENDBLK
  5
19
330
17
100
AcDbEntity
 67
     1
  8
0
100
AcDbBlockEnd
  0
BLOCK
  5
916
330
915
100
AcDbEntity
  8
0
100
AcDbBlockBegin
  2
LAGEN
 70
     0
 10
0.0
 20
0.0
 30
0.0
  3
LAGEN
  1

  0
ENDBLK
  5
917
330
915
100
AcDbEntity
  8
0
100
AcDbBlockEnd
  0
ENDSEC
  0
SECTION
  2
ENTITIES
  0
LINE
  5
C25
330
1A
100
AcDbEntity
  8
0
100
AcDbLine
 10
1306.004746737488
 20
2332.984133906435
 30
0.0
 11
1841.082220624985
 21
2332.984133906435
 31
0.0
  0
LINE
  5
C26
330
1A
100
AcDbEntity
  8
0
100
AcDbLine
 10
1156.004746737486
 20
2272.984133906436
 30
0.0
 11
1606.004746737489
 21
2272.984133906436
 31
0.0
  0
LINE
  5
C27
330
1A
100
AcDbEntity
  8
0
100
AcDbLine
 10
1156.004746737486
 20
2412.984133906435
 30
0.0
 11
2056.004746737488
 21
2412.984133906435
 31
0.0
  0
LINE
  5
C28
330
1A
100
AcDbEntity
  8
0
100
AcDbLine
 10
1756.004746737489
 20
2122.984133906436
 30
0.0
 11
1756.004746737489
 21
1837.984133906434
 31
0.0
  0
LINE
  5
C29
330
1A
100
AcDbEntity
  8
0
100
AcDbLine
 10
2056.004746737488
 20
2412.984133906435
 30
0.0
 11
2056.004746737488
 21
1837.984133906434
 31
0.0
  0
ARC
  5
C2A
330
1A
100
AcDbEntity
  8
0
100
AcDbCircle
 10
1606.004746737489
 20
2122.984133906436
 30
0.0
 40
150.0
100
AcDbArc
 50
0.0
 51
90.0
  0
LINE
  5
C2B
330
1A
100
AcDbEntity
  8
0
100
AcDbLine
 10
1156.004746737486
 20
2412.984133906435
 30
0.0
 11
256.0047467374888
 21
2412.984133906435
 31
0.0
  0
LINE
  5
C2C
330
1A
100
AcDbEntity
  8
0
100
AcDbLine
 10
1006.004746737487
 20
2332.984133906435
 30
0.0
 11
486.0047467374887
 21
2332.984133906435
 31
0.0
  0
LINE
  5
C2D
330
1A
100
AcDbEntity
  8
0
100
AcDbLine
 10
1156.004746737486
 20
2272.984133906436
 30
0.0
 11
706.0047467374887
 21
2272.984133906436
 31
0.0
  0
ARC
  5
C2E
330
1A
100
AcDbEntity
  8
0
100
AcDbCircle
 10
706.0047467374887
 20
2122.984133906436
 30
0.0
 40
150.0
100
AcDbArc
 50
90.0
 51
180.0
  0
LINE
  5
C2F
330
1A
100
AcDbEntity
  8
0
100
AcDbLine
 10
256.0047467374888
 20
2412.984133906435
 30
0.0
 11
256.0047467374888
 21
1837.984133906434
 31
0.0
  0
LINE
  5
C30
330
1A
100
AcDbEntity
  8
0
100
AcDbLine
 10
556.0047467374887
 20
2122.984133906436
 30
0.0
 11
556.0047467374887
 21
1837.984133906434
 31
0.0
  0
LINE
  5
C31
330
1A
100
AcDbEntity
  8
0
100
AcDbLine
 10
1156.004746737486
 20
2312.984133906435
 30
0.0
 11
1286.004746737487
 21
2312.984133906435
 31
0.0
  0
LINE
  5
C32
330
1A
100
AcDbEntity
  8
0
100
AcDbLine
 10
1156.004746737486
 20
2312.984133906435
 30
0.0
 11
1026.004746737487
 21
2312.984133906435
 31
0.0
  0
LINE
  5
C33
330
1A
100
AcDbEntity
  8
0
100
AcDbLine
 10
1306.004746737488
 20
2332.984133906435
 30
0.0
 11
1286.004746737487
 21
2312.984133906435
 31
0.0
  0
LINE
  5
C34
330
1A
100
AcDbEntity
  8
0
100
AcDbLine
 10
1006.004746737487
 20
2332.984133906435
 30
0.0
 11
1026.004746737487
 21
2312.984133906435
 31
0.0
  0
LINE
  5
C35
330
1A
100
AcDbEntity
  8
0
100
AcDbLine
 10
1006.004746737487
 20
2332.984133906435
 30
0.0
 11
1006.004746737487
 21
2272.984133906436
 31
0.0
  0
LINE
  5
C36
330
1A
100
AcDbEntity
  8
0
100
AcDbLine
 10
1006.004746737487
 20
2272.984133906436
 30
0.0
 11
1026.004746737487
 21
2312.984133906435
 31
0.0
  0
LINE
  5
C37
330
1A
100
AcDbEntity
  8
0
100
AcDbLine
 10
1306.004746737488
 20
2272.984133906436
 30
0.0
 11
1286.004746737487
 21
2312.984133906435
 31
0.0
  0
LINE
  5
C38
330
1A
100
AcDbEntity
  8
0
100
AcDbLine
 10
1306.004746737488
 20
2332.984133906435
 30
0.0
 11
1306.004746737488
 21
2272.984133906436
 31
0.0
  0
LINE
  5
C39
330
1A
100
AcDbEntity
  8
0
100
AcDbLine
 10
1006.004746737487
 20
1342.984133906435
 30
0.0
 11
486.0047467374887
 21
1342.984133906435
 31
0.0
  0
LINE
  5
C3A
330
1A
100
AcDbEntity
  8
0
100
AcDbLine
 10
1156.004746737486
 20
1402.984133906434
 30
0.0
 11
706.0047467374887
 21
1402.984133906434
 31
0.0
  0
LINE
  5
C3B
330
1A
100
AcDbEntity
  8
0
100
AcDbLine
 10
1156.004746737486
 20
1262.984133906434
 30
0.0
 11
256.0047467374888
 21
1262.984133906434
 31
0.0
  0
LINE
  5
C3C
330
1A
100
AcDbEntity
  8
0
100
AcDbLine
 10
256.0047467374888
 20
1262.984133906434
 30
0.0
 11
256.0047467374888
 21
1837.984133906434
 31
0.0
  0
ARC
  5
C3D
330
1A
100
AcDbEntity
  8
0
100
AcDbCircle
 10
706.0047467374887
 20
1552.984133906434
 30
0.0
 40
150.0
100
AcDbArc
 50
180.0
 51
270.0
  0
LINE
  5
C3E
330
1A
100
AcDbEntity
  8
0
100
AcDbLine
 10
556.0047467374887
 20
1552.984133906434
 30
0.0
 11
556.0047467374887
 21
1837.984133906434
 31
0.0
  0
LINE
  5
C3F
330
1A
100
AcDbEntity
  8
0
100
AcDbLine
 10
2056.004746737488
 20
1262.984133906434
 30
0.0
 11
2056.004746737488
 21
1837.984133906434
 31
0.0
  0
ARC
  5
C40
330
1A
100
AcDbEntity
  8
0
100
AcDbCircle
 10
1606.004746737489
 20
1552.984133906434
 30
0.0
 40
150.0
100
AcDbArc
 50
270.0
 51
0.0
  0
LINE
  5
C41
330
1A
100
AcDbEntity
  8
0
100
AcDbLine
 10
1756.004746737489
 20
1552.984133906434
 30
0.0
 11
1756.004746737489
 21
1837.984133906434
 31
0.0
  0
LINE
  5
C42
330
1A
100
AcDbEntity
  8
0
100
AcDbLine
 10
1306.004746737488
 20
1342.984133906433
 30
0.0
 11
1841.082220624985
 21
1342.984133906435
 31
0.0
  0
LINE
  5
C43
330
1A
100
AcDbEntity
  8
0
100
AcDbLine
 10
1156.004746737486
 20
1402.984133906434
 30
0.0
 11
1606.004746737489
 21
1402.984133906434
 31
0.0
  0
LINE
  5
C44
330
1A
100
AcDbEntity
  8
0
100
AcDbLine
 10
1156.004746737486
 20
1262.984133906434
 30
0.0
 11
2056.004746737488
 21
1262.984133906434
 31
0.0
  0
LINE
  5
C45
330
1A
100
AcDbEntity
  8
0
100
AcDbLine
 10
1156.004746737486
 20
1362.984133906435
 30
0.0
 11
1026.004746737487
 21
1362.984133906435
 31
0.0
  0
LINE
  5
C46
330
1A
100
AcDbEntity
  8
0
100
AcDbLine
 10
1006.004746737487
 20
1342.984133906435
 30
0.0
 11
1006.004746737487
 21
1402.984133906434
 31
0.0
  0
LINE
  5
C47
330
1A
100
AcDbEntity
  8
0
100
AcDbLine
 10
1006.004746737487
 20
1402.984133906434
 30
0.0
 11
1026.004746737487
 21
1362.984133906435
 31
0.0
  0
LINE
  5
C48
330
1A
100
AcDbEntity
  8
0
100
AcDbLine
 10
1006.004746737487
 20
1342.984133906435
 30
0.0
 11
1026.004746737487
 21
1362.984133906435
 31
0.0
  0
LINE
  5
C49
330
1A
100
AcDbEntity
  8
0
100
AcDbLine
 10
1306.004746737488
 20
1342.984133906435
 30
0.0
 11
1306.004746737488
 21
1402.984133906434
 31
0.0
  0
LINE
  5
C4A
330
1A
100
AcDbEntity
  8
0
100
AcDbLine
 10
1306.004746737488
 20
1402.984133906434
 30
0.0
 11
1286.004746737487
 21
1362.984133906435
 31
0.0
  0
LINE
  5
C4B
330
1A
100
AcDbEntity
  8
0
100
AcDbLine
 10
1306.004746737488
 20
1342.984133906433
 30
0.0
 11
1286.004746737487
 21
1362.984133906435
 31
0.0
  0
LINE
  5
C4C
330
1A
100
AcDbEntity
  8
0
100
AcDbLine
 10
1156.004746737486
 20
1362.984133906435
 30
0.0
 11
1286.004746737487
 21
1362.984133906435
 31
0.0
  0
CIRCLE
  5
C4D
330
1A
100
AcDbEntity
  8
0
100
AcDbCircle
 10
1156.004746737486
 20
1497.984133906435
 30
0.0
 40
25.0
  0
CIRCLE
  5
C4E
330
1A
100
AcDbEntity
  8
0
100
AcDbCircle
 10
1156.004746737486
 20
1497.984133906435
 30
0.0
 40
45.0
  0
LINE
  5
C55
330
1A
100
AcDbEntity
  8
0
100
AcDbLine
 10
587.2157680102345
 20
322.7339550141331
 30
0.0
 11
1724.793725464743
 21
322.7339550141331
 31
0.0
  0
LINE
  5
C56
330
1A
100
AcDbEntity
  8
0
100
AcDbLine
 10
353.1158578486001
 20
737.7339550141333
 30
0.0
 11
542.2965499642769
 21
350.7734484138853
 31
0.0
  0
LINE
  5
C57
330
1A
100
AcDbEntity
  8
0
100
AcDbLine
 10
1769.7129435107
 20
350.7734484138853
 30
0.0
 11
1958.893635626377
 21
737.7339550141333
 31
0.0
  0
ARC
  5
C58
330
1A
100
AcDbEntity
  8
0
100
AcDbCircle
 10
587.2157680102345
 20
372.7339550141331
 30
0.0
 40
50.0
100
AcDbArc
 50
206.0534953104909
 51
270.0
  0
ARC
  5
C59
330
1A
100
AcDbEntity
  8
0
100
AcDbCircle
 10
1724.793725464743
 20
372.7339550141331
 30
0.0
 40
50.0
100
AcDbArc
 50
270.0
 51
333.946504689509
  0
LINE
  5
C5A
330
1A
100
AcDbEntity
  8
0
100
AcDbLine
 10
279.9847647051565
 20
772.7339550141334
 30
0.0
 11
1006.004746737487
 21
772.7339550141334
 31
0.0
  0
LINE
  5
C5C
330
1A
100
AcDbEntity
  8
0
100
AcDbLine
 10
256.0047467374888
 20
737.7339550141333
 30
0.0
 11
256.0047467374888
 21
762.7339550141321
 31
0.0
  0
ARC
  5
C5D
330
1A
100
AcDbEntity
  8
0
100
AcDbCircle
 10
279.9847647051565
 20
812.7339550141321
 30
0.0
 40
40.0
100
AcDbArc
 50
270.0
 51
323.1301023541568
  0
ARC
  5
C5E
330
1A
100
AcDbEntity
  8
0
100
AcDbCircle
 10
319.9847647051565
 20
782.733955014134
 30
0.0
 40
10.0
100
AcDbArc
 50
90.0
 51
143.1301023541601
  0
LINE
  5
C5F
330
1A
100
AcDbEntity
  8
0
100
AcDbLine
 10
266.0047467374888
 20
772.7339550141322
 30
0.0
 11
279.9847647051565
 21
772.7339550141334
 31
0.0
  0
ARC
  5
C60
330
1A
100
AcDbEntity
  8
0
100
AcDbCircle
 10
266.0047467374888
 20
762.7339550141321
 30
0.0
 40
10.0
100
AcDbArc
 50
90.0
 51
180.0
  0
LINE
  5
C61
330
1A
100
AcDbEntity
  8
0
100
AcDbLine
 10
486.0047467374887
 20
1342.984133906435
 30
0.0
 11
470.9272728499918
 21
1342.984133906435
 31
0.0
  0
ARC
  5
C62
330
1A
100
AcDbEntity
  8
0
100
AcDbCircle
 10
447.8733085251577
 20
1492.984133906434
 30
0.0
 40
150.0
100
AcDbArc
 50
180.0
 51
270.0
  0
ARC
  5
C63
330
1A
100
AcDbEntity
  8
0
100
AcDbCircle
 10
470.9272728499918
 20
1492.984133906435
 30
0.0
 40
150.0
100
AcDbArc
 50
180.0
 51
270.0
  0
LINE
  5
C64
330
1A
100
AcDbEntity
  8
0
100
AcDbLine
 10
320.9272728499918
 20
2182.984133906435
 30
0.0
 11
320.9272728499918
 21
1492.984133906435
 31
0.0
  0
LINE
  5
C65
330
1A
100
AcDbEntity
  8
0
100
AcDbLine
 10
297.8733085251541
 20
2182.984133906435
 30
0.0
 11
297.8733085251505
 21
1492.984133906434
 31
0.0
  0
ARC
  5
C66
330
1A
100
AcDbEntity
  8
0
100
AcDbCircle
 10
470.9272728499918
 20
2182.984133906435
 30
0.0
 40
150.0
100
AcDbArc
 50
90.0
 51
180.0
  0
ARC
  5
C67
330
1A
100
AcDbEntity
  8
0
100
AcDbCircle
 10
447.8733085251577
 20
2182.984133906435
 30
0.0
 40
150.0
100
AcDbArc
 50
90.0
 51
180.0
  0
LINE
  5
C68
330
1A
100
AcDbEntity
  8
0
100
AcDbLine
 10
486.0047467374887
 20
2332.984133906435
 30
0.0
 11
470.9272728499918
 21
2332.984133906435
 31
0.0
  0
ARC
  5
C69
330
1A
100
AcDbEntity
  8
0
100
AcDbCircle
 10
1841.082220624985
 20
2182.984133906435
 30
0.0
 40
150.0
100
AcDbArc
 50
0.0
 51
90.0
  0
ARC
  5
C6A
330
1A
100
AcDbEntity
  8
0
100
AcDbCircle
 10
1864.13618494982
 20
2182.984133906435
 30
0.0
 40
150.0
100
AcDbArc
 50
0.0
 51
90.0
  0
LINE
  5
C6B
330
1A
100
AcDbEntity
  8
0
100
AcDbLine
 10
2014.136184949823
 20
2182.984133906435
 30
0.0
 11
2014.136184949827
 21
1492.984133906434
 31
0.0
  0
LINE
  5
C6C
330
1A
100
AcDbEntity
  8
0
100
AcDbLine
 10
1991.082220624985
 20
2182.984133906435
 30
0.0
 11
1991.082220624985
 21
1492.984133906435
 31
0.0
  0
ARC
  5
C6D
330
1A
100
AcDbEntity
  8
0
100
AcDbCircle
 10
1841.082220624985
 20
1492.984133906435
 30
0.0
 40
150.0
100
AcDbArc
 50
270.0
 51
0.0
  0
ARC
  5
C6E
330
1A
100
AcDbEntity
  8
0
100
AcDbCircle
 10
1864.13618494982
 20
1492.984133906434
 30
0.0
 40
150.0
100
AcDbArc
 50
270.0
 51
0.0
  0
ARC
  5
C6F
330
1A
100
AcDbEntity
  8
0
100
AcDbCircle
 10
2032.02472876982
 20
812.7339550141321
 30
0.0
 40
40.0
100
AcDbArc
 50
216.869897645843
 51
270.0
  0
ARC
  5
C70
330
1A
100
AcDbEntity
  8
0
100
AcDbCircle
 10
2046.004746737489
 20
762.7339550141321
 30
0.0
 40
10.0
100
AcDbArc
 50
0.0
 51
90.0
  0
LINE
  5
C71
330
1A
100
AcDbEntity
  8
0
100
AcDbLine
 10
2046.004746737489
 20
772.7339550141322
 30
0.0
 11
2032.02472876982
 21
772.7339550141334
 31
0.0
  0
LINE
  5
C72
330
1A
100
AcDbEntity
  8
0
100
AcDbLine
 10
2056.004746737488
 20
737.7339550141333
 30
0.0
 11
2056.004746737488
 21
762.7339550141321
 31
0.0
  0
ARC
  5
C73
330
1A
100
AcDbEntity
  8
0
100
AcDbCircle
 10
1992.024728769821
 20
782.733955014134
 30
0.0
 40
10.0
100
AcDbArc
 50
36.86989764583984
 51
90.0
  0
INSERT
  5
C77
330
1A
100
AcDbEntity
  8
MAATLIJN
100
AcDbBlockReference
  2
LAGEN
 10
0.2486230481802067
 20
0.4411918562507255
 30
0.0
  0
LINE
  5
C79
330
1A
100
AcDbEntity
  8
0
100
AcDbLine
 10
256.0047467374888
 20
737.7339550141333
 30
0.0
 11
2056.004746737488
 21
737.7339550141333
 31
0.0
  0
LINE
  5
C7A
330
1A
100
AcDbEntity
  8
0
100
AcDbLine
 10
587.2157680102345
 20
304.7339550141332
 30
0.0
 11
1724.793725464743
 21
304.7339550141332
 31
0.0
  0
LINE
  5
C7B
330
1A
100
AcDbEntity
  8
0
100
AcDbLine
 10
1724.793725464743
 20
304.7339550141332
 30
0.0
 11
1724.793725464743
 21
322.7339550141331
 31
0.0
  0
LINE
  5
C9E
330
1A
100
AcDbEntity
  8
0
100
AcDbLine
 10
1717.138630352641
 20
1342.984133906435
 30
0.0
 11
1702.061156465143
 21
1342.984133906435
 31
0.0
  0
LINE
  5
D2F
330
1A
100
AcDbEntity
  8
0
100
AcDbLine
 10
587.2157680102345
 20
304.7339550141332
 30
0.0
 11
587.2157680102345
 21
322.7339550141331
 31
0.0
  0
LINE
  5
D30
330
1A
100
AcDbEntity
  8
0
100
AcDbLine
 10
319.9847647051565
 20
792.733955014134
 30
0.0
 11
470.9272728499918
 21
772.7339550141334
 31
0.0
  0
LINE
  5
D31
330
1A
100
AcDbEntity
  8
0
100
AcDbLine
 10
1992.024728769821
 20
792.733955014134
 30
0.0
 11
1841.082220624985
 21
772.7339550141334
 31
0.0
  0
LINE
  5
D34
330
1A
100
AcDbEntity
  8
0
100
AcDbLine
 10
1006.004746737487
 20
772.7339550141334
 30
0.0
 11
2032.02472876982
 21
772.7339550141334
 31
0.0
  0
MTEXT
  5
244D
330
1A
100
AcDbEntity
  8
GEBROKENLIJN
100
AcDbMText
 10
2345.802339294578
 20
678.7525772797423
 30
0.0
 40
35.0
 41
2321.343696820999
 71
     1
 72
     5
  1

  7
ISO35
1001
ACAD
1000
MTEXTBEGIN
1070
    73
1070
     1
1070
    44
1040
1.0
1070
    74
1070
     0
1000
MTEXTEND
  0
LINE
  5
29AB
330
1A
100
AcDbEntity
  8
0
100
AcDbLine
 10
447.8733085251577
 20
1342.984133906433
 30
0.0
 11
470.9272728499918
 21
1342.984133906435
 31
0.0
  0
LINE
  5
29AC
330
1A
100
AcDbEntity
  8
0
100
AcDbLine
 10
447.8733085251577
 20
2332.984133906437
 30
0.0
 11
472.0587764820375
 21
2332.984133906435
 31
0.0
  0
ARC
  5
2ADC
330
1A
100
AcDbEntity
  8
0
100
AcDbCircle
 10
1156.004746737486
 20
717.7339550141333
 30
0.0
 40
30.0
100
AcDbArc
 50
138.1896851042213
 51
41.81031489577867
  0
ELLIPSE
  5
2BA7
330
1A
100
AcDbEntity
  8
0
100
AcDbEllipse
 10
1156.004746737486
 20
1372.532918218522
 30
0.0
 11
-30.0
 21
0.0
 31
0.0
210
0.0
220
0.0
230
1.0
 40
0.1286905348682922
 41
0.0
 42
6.283185307179584
  0
LINE
  5
3584
330
1A
100
AcDbEntity
  8
0
100
AcDbLine
 10
1564.793483681237
 20
2332.984133906435
 30
0.0
 11
1502.089135062934
 21
2332.984133906435
 31
0.0
  0
LINE
  5
3585
330
1A
100
AcDbEntity
  8
0
100
AcDbLine
 10
1564.793483681237
 20
1342.984133906435
 30
0.0
 11
1502.089135062934
 21
1342.984133906435
 31
0.0
  0
LINE
  5
35B5
330
1A
100
AcDbEntity
  8
0
100
AcDbLine
 10
1214.219049242976
 20
772.7339550141334
 30
0.0
 11
1316.267687435105
 21
772.7339550141331
 31
0.0
  0
LINE
  5
35CF
330
1A
100
AcDbEntity
  8
0
100
AcDbLine
 10
1597.254746737489
 20
2272.984133906436
 30
0.0
 11
1376.988744298254
 21
2272.984133906436
 31
0.0
  0
LINE
  5
35D0
330
1A
100
AcDbEntity
  8
0
100
AcDbLine
 10
1597.254746737489
 20
1402.984133906434
 30
0.0
 11
1376.988744298254
 21
1402.984133906435
 31
0.0
  0
VIEWPORT
  5
22
330
17
100
AcDbEntity
 67
     1
  8
0
100
AcDbViewport
 10
220.2361984969249
 20
148.5026560578242
 30
0.0
 40
468.3485958486518
 41
279.6175925075981
 68
     1
 69
     1
1001
ACAD
1000
MVIEW
1002
{
1070
    16
1010
0.0
1020
0.0
1030
0.0
1010
0.0
1020
0.0
1030
1.0
1040
0.0
1040
279.6175925075981
1040
220.2361984969249
1040
148.5026560578242
1040
50.0
1040
0.0
1040
0.0
1070
     0
1070
   100
1070
     1
1070
     1
1070
     0
1070
     0
1070
     0
1070
     0
1040
0.0
1040
0.0
1040
0.0
1040
1.0
1040
1.0
1040
10.0
1040
10.0
1070
     0
1002
{
1002
}
1002
}
  0
VIEWPORT
  5
DC
330
17
100
AcDbEntity
 67
     1
  8
VIEWPORT
100
AcDbViewport
 10
220.2438830012424
 20
148.5
 30
0.0
 40
400.487766002485
 41
277.0
 68
     2
 69
     2
1001
ACAD
1000
MVIEW
1002
{
1070
    16
1010
0.0
1020
0.0
1030
0.0
1010
0.0
1020
0.0
1030
1.0
1040
0.0
1040
2770.000000767291
1040
2033.62565961348
1040
1408.301864108942
1040
50.0
1040
0.0
1040
0.0
1070
     0
1070
   100
1070
     1
1070
     1
1070
     0
1070
     0
1070
     0
1070
     0
1040
0.0
1040
0.0
1040
0.0
1040
1.0
1040
1.0
1040
10.0
1040
10.0
1070
     0
1002
{
1002
}
1002
}
  0
LWPOLYLINE
  5
DD
330
17
100
AcDbEntity
 67
     1
  8
KADER
100
AcDbPolyline
 90
        4
 70
     1
 43
0.0
 10
20.0
 20
10.0
 10
420.4877660024848
 20
10.0
 10
420.4877660024848
 20
287.0
 10
20.0
 20
287.0
  0
ENDSEC
  0
SECTION
  2
OBJECTS
  0
DICTIONARY
  5
C
330
0
100
AcDbDictionary
  3
ACAD_GROUP
350
D
  3
ACAD_LAYOUT
350
10C6
  3
ACAD_MLINESTYLE
350
E
  3
ACAD_PLOTSETTINGS
350
10C7
  3
ACAD_PLOTSTYLENAME
350
10C4
  3
ACDBHEADERROUNDTRIPXREC
350
3708
  3
ACDBVARIABLEDICTIONARY
350
5D
  0
DICTIONARY
  5
31C6
330
2
100
AcDbDictionary
280
     1
  3
ACAD_LAYERSTATES
360
31C7
  0
DICTIONARY
  5
23DB
330
1A
100
AcDbDictionary
280
     1
  3
ACAD_LAYOUTSELFREF
360
372A
  0
DICTIONARY
  5
23D9
330
17
100
AcDbDictionary
280
     1
  3
ACAD_LAYOUTSELFREF
360
3729
  0
DICTIONARY
  5
D
102
{ACAD_REACTORS
330
C
102
}
330
C
100
AcDbDictionary
  0
DICTIONARY
  5
10C6
102
{ACAD_REACTORS
330
C
102
}
330
C
100
AcDbDictionary
  0
DICTIONARY
  5
E
102
{ACAD_REACTORS
330
C
102
}
330
C
100
AcDbDictionary
  3
STANDARD
350
13
  0
DICTIONARY
  5
10C7
102
{ACAD_REACTORS
330
C
102
}
330
C
100
AcDbDictionary
  0
ACDBDICTIONARYWDFLT
  5
10C4
102
{ACAD_REACTORS
330
C
102
}
330
C
100
AcDbDictionary
281
     1
  3
Normal
350
10C5
100
AcDbDictionaryWithDefault
340
10C5
  0
DICTIONARY
  5
3708
102
{ACAD_REACTORS
330
C
102
}
330
C
100
AcDbDictionary
  3
CEPSNTYPE
350
3712
  3
DIMSTYLEDATA
350
3716
  3
FINGERPRINTGUID
350
3713
  3
HYPERLINKBASE
350
370B
  3
INSUNITS
350
3711
  3
LAYOUTDICT
350
370D
  3
LWETCUNION
350
3710
  3
PLOTSETDICT
350
370E
  3
PLOTSTYLNAMDICT
350
370F
  3
PSVPSCALE
350
3715
  3
PUCSBASE
350
3719
  3
PUCSORGBACK
350
371F
  3
PUCSORGBOTTOM
350
371B
  3
PUCSORGFRONT
350
371E
  3
PUCSORGLEFT
350
371C
  3
PUCSORGRIGHT
350
371D
  3
PUCSORGTOP
350
371A
  3
PUCSORTHOREF
350
3717
  3
PUCSORTHOVIEW
350
3718
  3
STYLESHEET
350
370C
  3
TSTACKALIGN
350
3709
  3
TSTACKSIZE
350
370A
  3
UCSBASE
350
3722
  3
UCSORGBACK
350
3728
  3
UCSORGBOTTOM
350
3724
  3
UCSORGFRONT
350
3727
  3
UCSORGLEFT
350
3725
  3
UCSORGRIGHT
350
3726
  3
UCSORGTOP
350
3723
  3
UCSORTHOREF
350
3720
  3
UCSORTHOVIEW
350
3721
  3
VERSIONGUID
350
3714
  0
DICTIONARY
  5
5D
102
{ACAD_REACTORS
330
C
102
}
330
C
100
AcDbDictionary
  3
DIMADEC
350
5E
  3
DIMASSOC
350
10CE
  0
DICTIONARY
  5
31C7
102
{ACAD_REACTORS
330
31C6
102
}
330
31C6
100
AcDbDictionary
  0
XRECORD
  5
372A
102
{ACAD_REACTORS
330
23DB
102
}
330
23DB
100
AcDbXrecord
340
1A
  0
XRECORD
  5
3729
102
{ACAD_REACTORS
330
23D9
102
}
330
23D9
100
AcDbXrecord
340
17
  0
MLINESTYLE
  5
13
102
{ACAD_REACTORS
330
E
102
}
330
E
100
AcDbMlineStyle
  2
STANDARD
 70
     0
  3

 62
     0
 51
90.0
 52
90.0
 71
     2
 49
0.5
 62
   256
  6
BYLAYER
 49
-0.5
 62
   256
  6
BYLAYER
  0
ACDBPLACEHOLDER
  5
10C5
102
{ACAD_REACTORS
330
10C4
102
}
330
10C4
100
AcDbPlaceHolder
280
     0
  0
XRECORD
  5
3712
102
{ACAD_REACTORS
330
3708
102
}
330
3708
100
AcDbXrecord
 90
        0
  0
XRECORD
  5
3716
102
{ACAD_REACTORS
330
3708
102
}
330
3708
100
AcDbXrecord
1000
DSTYLE
1002
{
1070
   277
 70
     6
1002
}
  0
XRECORD
  5
3713
102
{ACAD_REACTORS
330
3708
102
}
330
3708
100
AcDbXrecord
  1
{5EA03190-A002-43AC-99C6-B0DAAB9A0132}
  0
XRECORD
  5
370B
102
{ACAD_REACTORS
330
3708
102
}
330
3708
100
AcDbXrecord
  1

  0
XRECORD
  5
3711
102
{ACAD_REACTORS
330
3708
102
}
330
3708
100
AcDbXrecord
 90
        0
  0
XRECORD
  5
370D
102
{ACAD_REACTORS
330
3708
102
}
330
3708
100
AcDbXrecord
340
10C6
  0
XRECORD
  5
3710
102
{ACAD_REACTORS
330
3708
102
}
330
3708
100
AcDbXrecord
 90
    10781
  0
XRECORD
  5
370E
102
{ACAD_REACTORS
330
3708
102
}
330
3708
100
AcDbXrecord
340
10C7
  0
XRECORD
  5
370F
102
{ACAD_REACTORS
330
3708
102
}
330
3708
100
AcDbXrecord
340
10C4
  0
XRECORD
  5
3715
102
{ACAD_REACTORS
330
3708
102
}
330
3708
100
AcDbXrecord
 40
0.0
  0
XRECORD
  5
3719
102
{ACAD_REACTORS
330
3708
102
}
330
3708
100
AcDbXrecord
340
0
  0
XRECORD
  5
371F
102
{ACAD_REACTORS
330
3708
102
}
330
3708
100
AcDbXrecord
 10
0.0
 20
0.0
 30
0.0
  0
XRECORD
  5
371B
102
{ACAD_REACTORS
330
3708
102
}
330
3708
100
AcDbXrecord
 10
0.0
 20
0.0
 30
0.0
  0
XRECORD
  5
371E
102
{ACAD_REACTORS
330
3708
102
}
330
3708
100
AcDbXrecord
 10
0.0
 20
0.0
 30
0.0
  0
XRECORD
  5
371C
102
{ACAD_REACTORS
330
3708
102
}
330
3708
100
AcDbXrecord
 10
0.0
 20
0.0
 30
0.0
  0
XRECORD
  5
371D
102
{ACAD_REACTORS
330
3708
102
}
330
3708
100
AcDbXrecord
 10
0.0
 20
0.0
 30
0.0
  0
XRECORD
  5
371A
102
{ACAD_REACTORS
330
3708
102
}
330
3708
100
AcDbXrecord
 10
0.0
 20
0.0
 30
0.0
  0
XRECORD
  5
3717
102
{ACAD_REACTORS
330
3708
102
}
330
3708
100
AcDbXrecord
340
0
  0
XRECORD
  5
3718
102
{ACAD_REACTORS
330
3708
102
}
330
3708
100
AcDbXrecord
 70
     0
  0
XRECORD
  5
370C
102
{ACAD_REACTORS
330
3708
102
}
330
3708
100
AcDbXrecord
  1

  0
XRECORD
  5
3709
102
{ACAD_REACTORS
330
3708
102
}
330
3708
100
AcDbXrecord
 90
        1
  0
XRECORD
  5
370A
102
{ACAD_REACTORS
330
3708
102
}
330
3708
100
AcDbXrecord
 90
       70
  0
XRECORD
  5
3722
102
{ACAD_REACTORS
330
3708
102
}
330
3708
100
AcDbXrecord
340
0
  0
XRECORD
  5
3728
102
{ACAD_REACTORS
330
3708
102
}
330
3708
100
AcDbXrecord
 10
0.0
 20
0.0
 30
0.0
  0
XRECORD
  5
3724
102
{ACAD_REACTORS
330
3708
102
}
330
3708
100
AcDbXrecord
 10
0.0
 20
0.0
 30
0.0
  0
XRECORD
  5
3727
102
{ACAD_REACTORS
330
3708
102
}
330
3708
100
AcDbXrecord
 10
0.0
 20
0.0
 30
0.0
  0
XRECORD
  5
3725
102
{ACAD_REACTORS
330
3708
102
}
330
3708
100
AcDbXrecord
 10
0.0
 20
0.0
 30
0.0
  0
XRECORD
  5
3726
102
{ACAD_REACTORS
330
3708
102
}
330
3708
100
AcDbXrecord
 10
0.0
 20
0.0
 30
0.0
  0
XRECORD
  5
3723
102
{ACAD_REACTORS
330
3708
102
}
330
3708
100
AcDbXrecord
 10
0.0
 20
0.0
 30
0.0
  0
XRECORD
  5
3720
102
{ACAD_REACTORS
330
3708
102
}
330
3708
100
AcDbXrecord
340
0
  0
XRECORD
  5
3721
102
{ACAD_REACTORS
330
3708
102
}
330
3708
100
AcDbXrecord
 70
     0
  0
XRECORD
  5
3714
102
{ACAD_REACTORS
330
3708
102
}
330
3708
100
AcDbXrecord
  1
{DF76AC1E-0F6A-4A58-BF08-C6C84CC171A5}
  0
DICTIONARYVAR
  5
5E
102
{ACAD_REACTORS
330
5D
102
}
330
5D
100
DictionaryVariables
280
     0
  1
0
  0
DICTIONARYVAR
  5
10CE
102
{ACAD_REACTORS
330
5D
102
}
330
5D
100
DictionaryVariables
280
     0
  1
1
  0
ENDSEC
  0
EOF
